» » »

Raging Under The Influence, Fallen Cold And Dead Tabs (ver.1)

Artists:  A B C D E F G H I J K L M N O P Q R S T U V W X Y Z # 

Fallen Cold And Dead Tabs (ver.1)

Raging Under The Influence Tabs
 Rating:
4/5 (4 votes)
Fallen Cold And Dead lessons Tabs too difficult? Try these video lessons and learn fast
                Tuning D-A-D-G-B-E = Drop D
 
 Intro 1 (Distortion)
E|----------------------------------------------------------|
B|----------------------------------------------------------|
G|----------------------------------------------------------|
D|----------------------------------------------------------|
A|----------------------------------------------------------|
D|-0-12-15--x5----0-12-14--x5----0-15-17--x5----0-14-12--x5-|

  Intro 2 (Distortion)
E|------------------------------------------|
B|------------------------------------------|
G|------------------------------------------|
D|-0-5-8-----0-5-7-----0-8-10-----0-7-5-----|
A|-0-5-8-x5--0-5-7-x5--0-8-10-x5--0-7-5-x5--|
D|-0-5-8-----0-5-7-----0-8-10-----0-7-5-----|

  Verse (Distortion)
E|-----------------------------------|
B|-----------------------------------|
G|-----------------------------------|x12
D|-----------------------------------|
A|-----------------------------------|
D|-0-12-10--0-8-10--0-13-12--0-10-12-|

  Chorus (Heavy Distortion)
E|-----------------------------------|
B|-----------------------------------|
G|-----------------------------------|x4
D|-0-12-10--0-8-10--0-13-12--0-10-12-|
A|-0-12-10--0-8-10--0-13-12--0-10-12-|
D|-0-12-10--0-8-10--0-13-12--0-10-12-|

  Verse (Distortion)
E|-----------------------------------|
B|-----------------------------------|
G|-----------------------------------|x12
D|-----------------------------------|
A|-----------------------------------|
D|-0-12-10--0-8-10--0-13-12--0-10-12-|

  Bridge (Distortion)
E|-----------------------------------------------------------------------------|
B|-----------------------------------------------------------------------------|
G|-----------------------------------------------------------------------------|x4
D|-2-2-2--14-14-14--12-12-12--2-2-2-10-10-10-12-12-12--2-2-2-15-15-15-13-13-13-|
A|-2-2-2--12-12-12--10-10-10--2-2-2-8--8--8--10-10-10--2-2-2-13-13-13-12-12-12-|
D|-0-0-0--12-12-12--10-10-10--0-0-0-8--8--8--10-10-10--0-0-0-13-13-13-12-12-12-|

  Intro 1 (Distortion)
E|----------------------------------------------------------|
B|----------------------------------------------------------|
G|----------------------------------------------------------|
D|----------------------------------------------------------|
A|----------------------------------------------------------|
D|-0-12-15--x5----0-12-14--x5----0-15-17--x5----0-14-12--x5-|

  Intro 2 (Distortion)
E|------------------------------------------|
B|------------------------------------------|
G|------------------------------------------|
D|-0-5-8-----0-5-7-----0-8-10-----0-7-5-----|
A|-0-5-8-x5--0-5-7-x5--0-8-10-x5--0-7-5-x5--|
D|-0-5-8-----0-5-7-----0-8-10-----0-7-5-----|
            
Submit corrections

comments powered by Disqus
↑ Back to top | Raging Under The Influence Tabs for Fallen Cold And Dead. Lyrics for acoustic guitar and electric guitar. Tablatures and chords are parodies/interpretations of the original songs. You may use it for private study, scholarship, research or language learning purposes only