» » »

Raging Under The Influence, Evocation Tabs (ver.1)

Artists:  A B C D E F G H I J K L M N O P Q R S T U V W X Y Z # 

Evocation Tabs (ver.1)

Raging Under The Influence Tabs
 Rating:
4/5 (4 votes)
Evocation lessons Tabs too difficult? Try these video lessons and learn fast
                Tuning D-A-D-G-B-E = Drop D
 
  Intro A (Distortion)
E|----------------------------------------------------------|
B|----------------------------------------------------------|
G|----------------------------------------------------------|8x
D|----------------------------------------------------------|
A|----------------------------------------------------------|
D|-0-0-0-0-12/10---0-0-0-0-8/10---0-0-0-0-8/7---0-0-0-0-3/5-|

  Intro B (Distortion)
E|-------------------------------------------------------------------------|
B|-------------------------------------------------------------------------|
G|-------------------------------------------------------------------------|8x
D|-0000-12-12-12-12-12-12-0000-10-10-10-10-10-10-0000-8-8-8-8-8-8-0000-3/5-|
A|-0000-12-12-12-12-12-12-0000-10-10-10-10-10-10-0000-8-8-8-8-8-8-0000-3/5-|
D|-0000-12-12-12-12-12-12-0000-10-10-10-10-10-10-0000-8-8-8-8-8-8-0000-3/5-|

  Verse (Clean)
E|--------------------------------------------------------------------
B|--------------------------------------------------------------------
G|--------------------------------------------------------------------
D|-16-16-16-16-16-16-16-16--12-12-12-12-12-12-12-12--5-5-5-5-5-5-5-5--
A|-14-14-14-14-14-14-14-14--10-10-10-10-10-10-10-10--3-3-3-3-3-3-3-3--
D|-14-14-14-14-14-14-14-14--10-10-10-10-10-10-10-10--3-3-3-3-3-3-3-3—-

-------------------------|
-------------------------|
-------------------------|12x
-10-10-10-10-10-10-10-10-|
-8--8--8--8--8--8--8--8--|
-8--8--8--8--8--8--8--8--|

  Chorus (Clean)
E|------------------------------------------------------------------|
B|-3-3-3-3-3-3-3-3-3-3-3-3-3-3-3-3--2-2-2-2-2-2-2-2-2-2-2-2-2-2-2-2-|
G|-2-2-2-2-2-2-2-2-2-2-2-2-2-2-2-2--2-2-2-2-2-2-2-2-2-2-2-2-2-2-2-2-|14x
D|-0-0-0-0-0-0-0-0-0-0-0-0-0-0-0-0--0-0-0-0-0-0-0-0-0-0-0-0-0-0-0-0-|
A|-0-0-0-0-0-0-0-0-0-0-0-0-0-0-0-0--0-0-0-0-0-0-0-0-0-0-0-0-0-0-0-0-|
D|-0-0-0-0-0-0-0-0-0-0-0-0-0-0-0-0--0-0-0-0-0-0-0-0-0-0-0-0-0-0-0-0-|

Verse
Chorus

Intro
Verse
Chorus
Chorus

  Outro
E|---------------|
B|-3-2--3-2--5-3-|
G|-2-2--2-2--5-2-|
D|-0-0--0-0--0-0-|
A|-0-0--0-0--0-0-|
D|-0-0--0-0--0-0-|
            
Submit corrections

comments powered by Disqus
↑ Back to top | Raging Under The Influence Tabs for Evocation. Lyrics for acoustic guitar and electric guitar. Tablatures and chords are parodies/interpretations of the original songs. You may use it for private study, scholarship, research or language learning purposes only