» » »

Ecocatastrophe Tabs (ver.1)

Artists:  A B C D E F G H I J K L M N O P Q R S T U V W X Y Z # 

Ecocatastrophe Tabs (ver.1)

Raging Under The Influence
Rating:
0/5 (0 votes)

Hard to play? Try these video lessons and learn fast.
                Tuning D-A-D-G-B-E = Drop D
 
 Intro (Distortion)
E|-------------------------------------------------------|
B|-------------------------------------------------------|
G|-------------------------------------------------------|4x
D|-4-4-xx-4-4-xx-4-4-xx-4-4-x/4-4-xx-4-4-x/2-2-xx-2-2-x/-|
A|-4-4-xx-4-4-xx-4-4-xx-4-4-x/2-2-xx-2-2-x/2-2-xx-2-2-x/-|
D|-4-4-xx-4-4-xx-4-4-xx-4-4-x/-------------2-2-xx-2-2-x/-|

  Verse (Clean/Darkened)
E|-------------------------------------------------------------------|	
B|-------------------------------------------------------------------|	
G|-------------------------------------------------------------------|8x
D|-2x2x2x2x2x2x2x2----------------------------------/7x5x7x5x7x5x7x5-|	
A|-4x4x4x4x4x4x4x4/5x5x5x5x5x5x5x5x5/2x2x2x2x2x2x2x2/5x5x5x5x5x5x5x5-|	
D|-4x4x4x4x4x4x4x4/5x5x5x5x5x5x5x5x5/2x2x2x2x2x2x2x2/5x5x5x5x5x5x5x5-|

  Chorus (Distortion) 				      Bridge
E|-------------------------------------------------------|	    E|--------|
B|-------------------------------------------------------| 	    B|--------|
G|-------------------------------------------------------|4x    G|--------|
D|-4-4-xx-6-6-xx-4-4-xx-6-6-x/4-4-xx-4-4-x/2-2-xx-4-4-x/-|      D|-7h--6h-|
A|-4-4-xx-4-4-xx-4-4-xx-4-4-x/2-2-xx-2-2-x/2-2-xx-2-2-x/-|      A|-5h--4h-|
D|-4-4-xx-4-4-xx-4-4-xx-4-4-x/-------------2-2-xx-2-2-x/-|      D|-5h--4h-|
  
  Verse (Clean/Darkened)
E|-------------------------------------------------------------------|	
B|-------------------------------------------------------------------|	
G|-------------------------------------------------------------------|8x
D|-2x2x2x2x2x2x2x2----------------------------------/7x5x7x5x7x5x7x5-|	
A|-4x4x4x4x4x4x4x4/5x5x5x5x5x5x5x5x5/2x2x2x2x2x2x2x2/5x5x5x5x5x5x5x5-|	
D|-4x4x4x4x4x4x4x4/5x5x5x5x5x5x5x5x5/2x2x2x2x2x2x2x2/5x5x5x5x5x5x5x5-|

  Chorus (Distortion) 				      Bridge
E|-------------------------------------------------------|	    E|--------|
B|-------------------------------------------------------| 	    B|--------|
G|-------------------------------------------------------|4x    G|--------|
D|-4-4-xx-6-6-xx-4-4-xx-6-6-x/4-4-xx-4-4-x/2-2-xx-4-4-x/-|      D|-7h--6h-|
A|-4-4-xx-4-4-xx-4-4-xx-4-4-x/2-2-xx-2-2-x/2-2-xx-2-2-x/-|      A|-5h--4h-|
D|-4-4-xx-4-4-xx-4-4-xx-4-4-x/-------------2-2-xx-2-2-x/-|      D|-5h--4h-|
 
 Work-up to Solo (Distortion)
E|---------------------------------------------------------------|	
B|---------------------------------------------------------------|	
G|---------------------------------------------------------------|
D|-----------------14------14------/12-----/14----/17----/12-----|	
A|---------12------12------12------/10-----/14----/15----/10-----|	
D|-12-x10--12-x10--12-x10--12-x16--/10-x16-/12-x8-/15-x8-/10-x16-|

E|---------------------------------------|	
B|---------------------------------------|	
G|---------------------------------------|
D|-14------/12-----/14----/17----/12-----|	
A|-12------/10-----/14----/15----/10-----|	
D|-12-x16--/10-x16-/12-x8-/15-x8-/10-x16-|

  Solo
E|-----------------------------------------------------------------------|	
B|----11/12/11---------11/12/11--14b------11/12/11---------11/12/11--14b-|	
G|-12----------10---12-----------------12----------10---12---------------|
D|-----------------------------------------------------------------------|	
A|-----------------------------------------------------------------------|	
D|-----------------------------------------------------------------------|



E|------------------------------------------------------------|	
B|-----------------15--13—12p12--10-10--13--12--8--10--8--7---|	
G|-15--19--17--14---------------------------------------------|
D|------------------------------------------------------------|	
A|------------------------------------------------------------|	
D|------------------------------------------------------------|

E|------------------------|    |---------------------------------------------------|	
B|------------------------|    |---------------------------------------------------|	
G|-6/7/6--7/6--7/6--7/6/7-|x2  |-9-9--------7/9-9--------9-9--------7/9-9----------|
D|------------------------|    |-----10/9---------10/9-------10/9---------10/9--7h-|	
A|------------------------|    |---------------------------------------------------|	
D|------------------------|    |---------------------------------------------------|

E|--------------------------------|	
B|--------------------------------|	
G|--------------------------------|x3	
D|-----7-7--------------7--7------|	
A|-8-8-8-8-x16----10-10-10-10-x16-|	
D|--------------------------------|	

E|---------------------------------------------|
B|---------------------------------------------|
G|---------------------------------------------|
D|-------7--7------------7--7----------7-7-----|
A|-12-12-12-12-x8--10-10-10-10-x8--8-8-8-8-x32-|
D|---------------------------------------------|
            
Hard to play? Try these video lessons and learn fast. | Correct




comments powered by Disqus
↑ Back to top | Tablatures and chords are parodies/interpretations of the original songs. You may use it for private study, scholarship, research or language learning purposes only