» » »

Raging Under The Influence, Crap Tabs (ver.1)

Artists:  A B C D E F G H I J K L M N O P Q R S T U V W X Y Z # 
Rating:
0/5 (0 votes)
Crap lessons Tabs too difficult? Try these video lessons and learn fast
                Tuning D-A-D-G-B-E = Drop D
Whole Song = 25% Treble, 100% Bass, no Middle 

  Intro (Distortion)
E|---------------------------------------------------------------------------|
B|---------------------------------------------------------------------------|
G|----2x-----------------2x----------------5x----------------2x--------------|4x
D|-2-2-2-2-----2x-----3-3-3-3-----2x----5-5-5-5-----2x----3-3-3-3-----2x-----|
A|----------0-0-0-0------------0-0-0-0-----------0-0-0-0-----------0-0-0-0---|
D|---------------------------------------------------------------------------|

  Verse (Clean)
E|------------------------------------------------------------------|
B|------------------------------------------------------------------|
G|------------------------------------------------------------------|8x
D|-2-2-2-2-2-2-2-2-----------------3-3-3-3-3-3-3-3--0-0-0-0-0-0-0-0-|
A|-----------------0-0-0-0-0-0-0-0----------------------------------|
D|------------------------------------------------------------------|

  Chorus (Distortion)
E|------------------------------------------------------------------|
B|------------------------------------------------------------------|
G|------------------------------------------------------------------|4x
D|-2-2-2-2-2-2-2-2-----------------3-3-3-3-3-3-3-3--0-0-0-0-0-0-0-0-|
A|-----------------0-0-0-0-0-0-0-0----------------------------------|
D|------------------------------------------------------------------|

Verse
Chorus

Verse
Chorus

  Solo (Distortion)
E|------------------|	E|------------------|
B|------------------|	B|------------------|
G|------------------|3x	G|------------------|
D|---9-10-9-----7---|	D|---9-10-9----7/12-|
A|-7--------10----9-|	A|-7--------10------|
D|------------------|	D|------------------|

  Outro (Distortion)
E|----------------------------------------------------------------------------|
B|----------------------------------------------------------------------------|	
G|----------------------------------------------------------------------------|
D|-3-3-3-3-3-3--2-2-2-2-2-2--0-0-0-0-0-0-0-0-0-0-0-0-0-0-0-0------------------|	
A|------------------------------------------------------------3-3-3--2-2-2-0h-|
D|----------------------------------------------------------------------------|
            

comments powered by Disqus
↑ Back to top | Raging Under The Influence Tabs for Crap. Lyrics for acoustic guitar and electric guitar. Tablatures and chords are parodies/interpretations of the original songs. You may use it for private study, scholarship, research or language learning purposes only