» » »

Raging Under The Influence, Chenille Tabs (ver.1)

Artists:  A B C D E F G H I J K L M N O P Q R S T U V W X Y Z # 

Chenille Tabs (ver.1)

Raging Under The Influence Tabs
 Rating:
4/5 (4 votes)
Chenille lessons Tabs too difficult? Try these video lessons and learn fast
1
                Tuning D-A-D-G-B-E = Drop D
 
  Intro (Clean)
E|----13----13-----13----13-----13----13-----13----13-|
B|-13----13-----12----12-----11----11-----10----10----|
G|----------------------------------------------------|2x
D|----------------------------------------------------|
A|----------------------------------------------------|
D|----------------------------------------------------|

  Bridge Into Verse (Distortion)
E|-14x-14x-14x-14x-----9x-9x-9x-9x----|
B|-14x-14x-14x-14x-----9x-9x-9x-9x----|
G|-12x-12x-12x-12x-----7x-7x-7x-7x----|
D|-12x-12x-12x-12x-----7x-7x-7x-7x----|
A|-12x-12x-12x-12x-----7x-7x-7x-7x----|
D|-12x-12x-12x-12x-x4--7x-7x-7x-7x-x4-|

E|-14x-14x-15x-15x-15x-15x-15x-15x-----9x-9x-10x-10x-10x-10x-10x-10x----|
B|-14x-14x-15x-15x-15x-15x-15x-15x-----9x-9x-10x-10x-10x-10x-10x-10x----|
G|-12x-12x-12x-12x-12x-12x-12x-12x-----7x-7x--7x--7x--7x--7x--7x--7x----|7x
D|-12x-12x-12x-12x-12x-12x-12x-12x-----7x-7x--7x--7x--7x--7x--7x--7x----|
A|-12x-12x-12x-12x-12x-12x-12x-12x-----7x-7x--7x--7x--7x--7x--7x--7x----|
D|-12x-12x-12x-12x-12x-12x-12x-12x-x2--7x-7x--7x--7x--7x--7x--7x--7x-x2-|

  Verse Part 1 (Clean)
E|----14---------9--------12-------7---|
B|-15----15---10---10--13----13--8---8-|
G|-------------------------------------|2x
D|-------------------------------------|
A|-------------------------------------|
D|-------------------------------------|

  Verse Part 2 (Clean)
E|----------------------------------------------------------------------------------|
B|----------------------------------------------------------------------------------|
G|----------------------------------------------------------------------------------|3x
D|-9-9x-9-9x-9-9x--15-15x-15-15x-15-15x--10-10x-10-10x-10-10x--12-12x-12-12x-12-12x-|
A|-7-7x-7-7x-7-7x--12-12x-12-12x-12-12x--7---7x-7---7x-7---7x--10-10x-10-10x-10-10x-|
D|-7-7x-7-7x-7-7x--12-12x-12-12x-12-12x--7---7x-7---7x-7---7x--10-10x-10-10x-10-10x-|

  Verse Part 2 (Clean)
E|----------------------------------------------------------------|
B|----------------------------------------------------------------|
G|----------------------------------------------------------------|
D|-9-9x-9-9x-9-9x--15-15x-15-15x-15-15x--9-9x-10-10x--9-9x-10-10x-|
A|-7-7x-7-7x-7-7x--12-12x-12-12x-12-12x--7-7x-7---7x--9-9x-10-10x-|
D|-7-7x-7-7x-7-7x--12-12x-12-12x-12-12x--7-7x-7---7x--9-9x-10-10x-|

 Chorus (Distortion)
E|-14x-14x-14x-14x-----9x-9x-9x-9x----|
B|-14x-14x-14x-14x-----9x-9x-9x-9x----|
G|-12x-12x-12x-12x-----7x-7x-7x-7x----|
D|-12x-12x-12x-12x-----7x-7x-7x-7x----|
A|-12x-12x-12x-12x-----7x-7x-7x-7x----|
D|-12x-12x-12x-12x-x4--7x-7x-7x-7x-x4-|

E|-14x-14x-15x-15x-15x-15x-15x-15x-----9x-9x-10x-10x-10x-10x-10x-10x----|
B|-14x-14x-15x-15x-15x-15x-15x-15x-----9x-9x-10x-10x-10x-10x-10x-10x----|
G|-12x-12x-12x-12x-12x-12x-12x-12x-----7x-7x--7x--7x--7x--7x--7x--7x----|7x
D|-12x-12x-12x-12x-12x-12x-12x-12x-----7x-7x--7x--7x--7x--7x--7x--7x----|
A|-12x-12x-12x-12x-12x-12x-12x-12x-----7x-7x--7x--7x--7x--7x--7x--7x----|
D|-12x-12x-12x-12x-12x-12x-12x-12x-x2--7x-7x--7x--7x--7x--7x--7x--7x-x2-|




  Bridge Into Solo (Distortion)
E|---------------------------|
B|-10-10x--6-6-6-6x--8-8x--3-|
G|-9---9x--5-5-5-5x--7-7x--2-|2x
D|-7---7x--3-3-3-3x--5-5x--0-|
A|-7---7x--3-3-3-3x--5-5x--0-|
D|-7---7x--3-3-3-3x--5-5x--0-|

  Solo (Distortion)
E|----------------------------------------|
B|----------------------------------------|
G|-14-14----15---15----12---12----14---14-|3x
D|-0--0---0----0-----0----0-----0----0----|
A|----------------------------------------|
D|----------------------------------------|

E|------------------------------------------------------------------------|
B|------------------------------------------------------------------------|
G|-14-14----15---15----12---12----17---17---17-15-14--17-15-12-14-10-12-9-|
D|-0--0---0----0-----0----0-----0----0------------------------------------|
A|------------------------------------------------------------------------|
D|------------------------------------------------------------------------|

E|----------------------------------------------------|
B|----------------------------------------------------|
G|-7-7-7/10-10-10-10-10-10/9-9-9-9-9-9/12-12-12-12-12-|3x
D|----------------------------------------------------|
A|----------------------------------------------------|
D|----------------------------------------------------|

E|----------------------------------------------------|
B|----------------------------------------------------|
G|-7-7-7/10-10-10-10-10-10/9-9-9-9-9-9/14-14-14-14-14-|
D|----------------------------------------------------|
A|----------------------------------------------------|
D|----------------------------------------------------|

E|------------------------------------------------------------|
B|------------------------------------------------------------|
G|-14--12--15--10--12--9--10--7--9--5--7--3--5--2--0----------|
D|----------------------------------------------------3--2--0-|
A|------------------------------------------------------------|
D|------------------------------------------------------------|
            
Submit corrections

comments powered by Disqus
↑ Back to top | Raging Under The Influence Tabs for Chenille. Lyrics for acoustic guitar and electric guitar. 1 Tablatures and chords are parodies/interpretations of the original songs. You may use it for private study, scholarship, research or language learning purposes only