» » »

Raging Speedhorn, The Hate Song Bass tabs (ver.1)

Artists:  A B C D E F G H I J K L M N O P Q R S T U V W X Y Z # 

The Hate Song Bass tabs (ver.1)

Raging Speedhorn Tabs
 Rating:
4/5 (4 votes)
The Hate Song lessons Tabs too difficult? Try these video lessons and learn fast
                Tuning: B E A D (G)

quite a fast song, but here goes...

Verse:
G-------------
D-------------
A-------------
E-2-----------
B---5-2-5-2-5-

break in verse:
G---
D---
A-2-
E---
B---

Chorus: "This song is for you!.."
G----------------------------------------------
D----------------------------------------------
A-4-4-4-3-3-3-2-2-2----------------------------
E-------------------3-3-3-2-2-2-0------2-3-2-0-
B----------------------------------2-5---------
            
Submit corrections

comments powered by Disqus
↑ Back to top | Raging Speedhorn Bass for The Hate Song. Lyrics for acoustic guitar and electric guitar. Tablatures and chords are parodies/interpretations of the original songs. You may use it for private study, scholarship, research or language learning purposes only