» » »

Scrapin' The Resin Bass tabs (ver.1)

Artists:  A B C D E F G H I J K L M N O P Q R S T U V W X Y Z # 

Scrapin' The Resin Bass tabs (ver.1)

Raging Speedhorn
Rating:
0/5 (0 votes)

Hard to play? Try these video lessons and learn fast.
                Scr*pin the Resin by Raging Speedhorn

Tuning Drop Db
(drop it a semitone flat all the across then drop d)

Awesome song, quite easy to learn - just gotta get those riffs right
so, time to turn up the volume and wake up the neighbours...

\  = slide
*  = let ring
b  = bend
br = bend and release
h  = hammer on
p  = pull off
x  = heavily muted note
PM = Palm Mute

The beginning bit you hear is just feedback


bass not played during intro apart from:

Gb--------------|
Db--------------|
Ab--------------|
Db----10-12-----|

Verse riff

Gb---------------------------------------|
Db---------------------------------------|
Ab---------------------------------------|
Db-----3-0-0-3-0-0-3-0-0-3-0-0-10-12-----|


Chorus riff

Gb---------------------------------------|
Db---------------------------------------|
Ab---------------------------------------|
Db-----0-0*--10-10-10-10-0-10-12---------|


Then verse riff again


Gb---------------------------------------|
Db---------------------------------------|
Ab---------------------------------------|
Db-----3-0-0-3-0-0-3-0-0-3-0-0-10-12-----|


Chorus riff (different)

Gb---------------------------------------|
Db---------------------------------------|
Ab---------------------------------------|
Db-----0-0*--0-10-0-10-0-10-12-----------|

then

Gb---------------------------------------|
Db---------------------------------------|
Ab---------------------------------------|
Db-----0-0-0-0-0--0-10-0-10-12-----------|


Bass interlude (bridge riff)

Gb------------------------------------------------|
Db------------------------------------------------|
Ab------------------------------------------------|
Db-----0-0--0-10-0-10-12--(last time 12/)---------|   x 4

Bridge Riff

Gb------------------------------------------------|
Db------------------------------------------------|
Ab------------------------------------------------|      x 3
Db-----0-0-0-0-0-0-0-0-0-0--0-10-0-10-0-10-12-----|

Verse riff again


Gb---------------------------------------|
Db---------------------------------------|
Ab---------------------------------------|
Db-----3-0-0-3-0-0-3-0-0-3-0-0-10-12-----|

then

Gb----------------------------|
Db----------------------------|
Ab----------------------------|
Db-----0-0-0-0-0-0-0-0-0-0----|


Fill Riff 1

Gb----------------------------------------|
Db----------------------------------------|
Ab----------------------------------------|
Db-----6-5-3--3-0-0-3-0-0-3-0-0-3-0-0-----|

Then Fill Riff 2

Gb-----------------------------------------------------------------|
Db-----------------------------------------------------------------|
Ab-----------------------------------------------------------------|
Db-5-5-5-5-5-5-5-5-5-5-5-5-5-3-3-5-5-5-5-5-5-5-5-5-5-5-5-5-3-3-----|

The repeat both fill riffs again


Then ends on

Vocals:
     "ne - ver - a - gain!!!

Gb------------------------------------------------|
Db------------------------------------------------|
Ab------------------------------------------------|
Db-----6----5----3-----0(strum repeatedly)--------|

And that's the lot
            
Hard to play? Try these video lessons and learn fast. | Correct




comments powered by Disqus
↑ Back to top | Tablatures and chords are parodies/interpretations of the original songs. You may use it for private study, scholarship, research or language learning purposes only