» » »

Raging Speedhorn, Ride With The Devil Tabs (ver.1)

Artists:  A B C D E F G H I J K L M N O P Q R S T U V W X Y Z # 

Ride With The Devil Tabs (ver.1)

Raging Speedhorn Tabs
Rating:
0/5 (0 votes)
Hard to play? Try these video lessons and learn fast.
                
Raging Speedhorn - Ride With The Devil


Tuning :D A D G B E

Intro:                Verse:
E-------------------|-----------------
B-------------------|-----------------
G-------------------|-----------------
D-------------------|-5-/2-1-2-1-2-1-2
A-------------------|-5-/2-1-2-1-2-1-2
D-5-/2-1-2-1-2-1-2--|-5-/2-1-2-1-2-1-2

Chorus:
E--------------------------------------------
B--------------------------------------------
G-----9-9---------------------9-9------------
D-0-0-9-9-6-6-6-6-8-8-8-0-0-0-9-9-6-6-6-5-5-5
A-0-0-7-7-6-6-6-6-8-8-8-0-0-0-7-7-6-6-6-5-5-5
D-0-0-----6-6-6-6-8-8-8-0-0-0-----6-6-6-5-5-5

Breakdown: (after Bass Solo)
E-------------------------
B-------------------------
G-------------------------
D-6-6-6-2-2-2-5-5-5-2-2-2-
A-6-6-6-2-2-2-5-5-5-2-2-2-
D-6-6-6-2-2-2-5-5-5-2-2-2-

outro :
E--------------------------------------------------
B--------------------------------------------------
G-6-6-6-6-6-11-11-11-11-11--4-4-4-4-4-6-6-6-6-6-0-0
D-6-6-6-6-6-11-11-11-11-11--4-4-4-4-4-6-6-6-6-6-0-0
A-4-4-4-4-4--9--9--9--9--9--2-2-2-2-2-4-4-4-4-4-0-0
D--------------------------------------------------



================================================================================



Raging Speedhorn - Ride With The Devil


Tuning: Half step down with drop string tuning

Intro
|----------------------|
|----------------------|
|----------------------|
|----------------------|
|----------------------|
|--63----2-3-2-3-2-3--|

Then:
|----------------------|
|----------------------|
|----------------------|
|----------------------|
|--63----2-3-2-3-2-3--|
|--63----2-3-2-3-2-3--|

Played over above riff
|------------------------------|
|------------------------------|
|------------------------------|
|--6--3--2--------6--3-/-9--|
|------------------------------|
|------------------------------|

Chorus
|--------------------------------------------------------------------------------|
|--------------------------------------------------------------------------------|
|--------------------------------------------------------------------------------|
|--0-0-10-10-10-10-------------------------0-0-10-10-10-10-----------------------|
|--0-0--8--8--8--8---7-7-7-7-7-9-9-9-9-9---0-0--8--8--8--8--7-7-7-7-7-6-6-6-6-6--|
|--0-0---------------7-7-7-7-7-9-9-9-9-9---0-0--------------7-7-7-7-7-6-6-6-6-6--|

|-------------------------------|
|-------------------------------|
|-------------------------------|
|-------------------------------|
|--7-7---3-3---6-6---3-3-3-3-3--|
|--7-7---3-3---6-6---3-3-3-3-3--|

Outro
|---------------------|
|---------------------|
|---------------------|
|--0----5----10----0--|
|--0----5----10----0--|
|--0----5----10----0--|
            

comments powered by Disqus
↑ Back to top | Raging Speedhorn Tabs for Ride With The Devil. Lyrics for acoustic guitar and electric guitar. Tablatures and chords are parodies/interpretations of the original songs. You may use it for private study, scholarship, research or language learning purposes only