» » »

Madman Tabs (ver.2)

Artists:  A B C D E F G H I J K L M N O P Q R S T U V W X Y Z # 

Madman Tabs (ver.2)

Raging Speedhorn
Rating:
0/5 (0 votes)

Hard to play? Try these video lessons and learn fast.
                Tuning: low to high - c# g# c# f# a# d#

key

/ = slide up
\ = slide down


riff1 intro (guitar 1)
|------------------------------------------|
|------------------------------------------|
|------------------------------------------|
|------------------------------------------|
|------------------------------------------|
|--0-0--0---0-0-0--0--0-5\3-3--3-3/5-5--5--|
                                           
riff2 chorus (guitar 1&2)
|------------------------------------------|
|------------------------------------------|
|------------------------------------------|
|------------------------------------------|
|--0-0--0---0-0-0--0--0-5\3-3--3-3/5-5--5--|
|--0-0--0---0-0-0--0--0-5\3-3--3-3/5-5--5--|
                                           
riff3 verse (guitar 1&2)
|------------------------------------------|
|------------------------------------------|
|------------------------------------------|
|------------------------------------------|
|--0-6-5-5--0-6-5--3/5-5-5--3/5-5-5--------|
|--0-6-5-5--0-6-5--3/5-5-5--3/5-5-5--------|
                                            
riff4 bridge (guitar 1)
|------------------------------------------|
|------------------------------------------|
|------------------------------------------|
|--2-2-0-2--2--0-2-2--0-2-2-5--------------|
|------------------------------------------|
|------------------------------------------|
                                           
riff5 bridge (guitar 1&2)
|------------------------------------------|
|------------------------------------------|
|------------------------------------------|
|------------------------------------------|
|--5-5-3-5--5--3-5-5--3-5-5-8--------------|
|--5-5-3-5--5--3-5-5--3-5-5-8--------------|
                                            
riff6 brdge (guitar1)
|------------------------------------------|
|------------------------------------------|
|--2-2-0-2--2--0-2-2--0-2-2-5--------------|
|------------------------------------------|
|------------------------------------------|
|------------------------------------------|
                                            
riff7 outro (guitar 1&2)
|------------------------------------------|
|------------------------------------------|
|------------------------------------------|
|------------------------------------------|
|--5-5-3-5-\-\-\-\1------------------------|
|--5-5-3-5-\-\-\-\1------------------------|
                                            
RIFF1 x2
RIFF2 x4 
RIFF3 x8
RIFF2 x4
RIFF3 x8
RIFF3 x8
RIFF4 x2 
RIFF5 x8
RIFF6 x4
RIFF5 x8
RIFF6 x4
RIFF5 x8
RIFF7 x1
            
Hard to play? Try these video lessons and learn fast. | Correct




comments powered by Disqus
↑ Back to top | Tablatures and chords are parodies/interpretations of the original songs. You may use it for private study, scholarship, research or language learning purposes only