» » »

Raging Speedhorn, High Whore Bass tabs (ver.1)

Artists:  A B C D E F G H I J K L M N O P Q R S T U V W X Y Z # 

High Whore Bass tabs (ver.1)

Raging Speedhorn Tabs
 Rating:
4/5 (4 votes)
High Whore lessons Tabs too difficult? Try these video lessons and learn fast
1
                Tuning= Drop C (cb gb cb fb)

VerSe Part 1(a)
F-------------------------------------------------------------------
C------------------------------------------------------------------
G----------5-------------------------------------------------------
C---0--0------0-6-5-3p0-3h5-3-----------------------------------

VerSe Part 1(b)
F-------------------------------------------------------------------
C------------------------------------------------------------------
G----------5-------------------------------------------------------
C---0--0------0-5-5-5-5-6-6-6-6---------------------------------

ChoRus 
F-------------------------------------------------------------------
C------------------------------------------------------------------
G-------------------------------------------------------------------
C----0----0----0---13-13-13-13-13-13---------------------------

BriDge
F--------------------------------------------------------------------------
C--------------------------------------------------------------------------
G--------------------------------------------------------------------------
C-0-0-0-0-0-0-0-0-0-0-0-0-0-0-0-0-6-6-6-6-6-6-6-6-6-6-6-6-6-6-6-6

OutRo
F---------------------------------------------------------------------
C---------------------------------------------------------------------
G-----3-----------------1--------------------------------------------
C-0-------4--5--4-1-2-----1--b---r---------------------------------

Thats about it i think , couldnt be bothered to tab the bridge so i'll do it some other time, i'm pretty sure this is 90% accurate, then again i could be wrong.
            
Submit corrections

comments powered by Disqus
↑ Back to top | Raging Speedhorn Bass for High Whore. Lyrics for acoustic guitar and electric guitar. 1 Tablatures and chords are parodies/interpretations of the original songs. You may use it for private study, scholarship, research or language learning purposes only