» » »

Raging Speedhorn, Fuck The Voodoo Man Bass tabs (ver.1)

Artists:  A B C D E F G H I J K L M N O P Q R S T U V W X Y Z # 

Fuck The Voodoo Man Bass tabs (ver.1)

Raging Speedhorn Tabs
 Rating:
4/5 (4 votes)
Fuck The Voodoo Man lessons Tabs too difficult? Try these video lessons and learn fast
1
                A Friendly song, fun to play acoustically round the campfire
ok so maybe not

awesome riffs, sounds mint and relatively easy


F*ck the voodoo man by Raging Speedhorn

tuning is drop db
(down a semitone all the way across and then drop d down a tone further)

This is easier to play with a pick, but perfectly possible to play finger style

Legend
\  = slide
*  = let ring
b  = bend
br = bend and release
h  = hammer on
p  = pull off
x  = heavily muted note
PM = Palm Mute


Main riff (bass not played during intro)

Gb----------------------------------------------------------|
Db----------------------------------------------------------|
Ab----------------------------------------------------------|
Db----0-12-10--0-12-10--0-12-10--0-12-10--0-10-12-----------|


Then before the vocals kick in "20 pints today" etc


Gb------------------------------------------|
Db------------------------------------------|
Ab------------------------------------------|
Db----0-10--0-10--0-10--0-10-12-------------|   x 2


Gb------------------------------------------|
Db------------------------------------------|
Ab------------------------------------------|
Db----12-10--12-10--12-10--0-10-12----------|   x 2


Then play main riff


Chorus

Gb------------------------------------------|
Db------------------------------------------|
Ab------------------------------------------|
Db----0-7-6-0--3-5-3-0--7-6-----------------|


Fill (not single times like the guitars, and kinda quick so
keep moving through it)

Gb--------------------------------------------------|
Db--------------------------------------------------|
Ab--------------------------------------------------|
Db----10-10-10--6-6-6-6--0-0-0--10-10-10--6-6-6-----|

Then at same speed

Gb------------------------|
Db------------------------|
Ab------------------------|
Db----10-6-0-10-----------|

and that's the lot
            
Submit corrections

comments powered by Disqus
↑ Back to top | Raging Speedhorn Bass for Fuck The Voodoo Man. Lyrics for acoustic guitar and electric guitar. 1 Tablatures and chords are parodies/interpretations of the original songs. You may use it for private study, scholarship, research or language learning purposes only