» » »

Chronic Youth Tabs (ver.1)

Artists:  A B C D E F G H I J K L M N O P Q R S T U V W X Y Z # 

Chronic Youth Tabs (ver.1)

Raging Speedhorn
Rating:
0/5 (0 votes)

Tabs too difficult? Try these video lessons and learn fast.
                

Drop D Tuning
Listen to song for rhythm, tempo and number of times to 
play each riff.

---------------------------------------------|--------------------------------
---------------------------------------------|--------------------------------
---------------------------------------------|--------------------------------
-5-5-7-5-5-7-5-5-7-5-5-7-5-5-7-5-5-7-5-5--3v-|--------------------------------
-5-5-7-5-5-7-5-5-7-5-5-7-5-5-7-5-5-7-5-5--3v-|--------------------------------
-5-5-5-5-5-5-5-5-5-5-5-5-5-5-5-5-5-5-5-5--3v-|--------------------------------
 Intro/Main Riff                                                              

----------------------|-------------------------------------------------------
----------------------|-------------------------------------------------------
----------------------|-------------------------------------------------------
-4/6-6-6-6--9\6-6-6-6-|-------------------------------------------------------
-4/6-6-6-6--9\6-6-6-6-|-------------------------------------------------------
-4/6-6-6-6--9\6-6-6-6-|-------------------------------------------------------
 Chorus                                                                       

------------------|-----------------------------------------------------------
------------------|-----------------------------------------------------------
------------------|-----------------------------------------------------------
-0-xx-0-----------|-----------------------------------------------------------
-0-xx-0-0h3h5-3p0-|-----------------------------------------------------------
-0-xx-0-----------|-----------------------------------------------------------
 End Riff
            
Tabs too difficult? Try these video lessons and learn fast.




comments powered by Disqus
↑ Back to top | Tablatures and chords are parodies/interpretations of the original songs. You may use it for private study, scholarship, research or language learning purposes only