» » »

War Within A Breath Bass tabs (ver.1)

Artists:  A B C D E F G H I J K L M N O P Q R S T U V W X Y Z # 

War Within A Breath Bass tabs (ver.1)

Rage Against The Machine
Rating:
0/5 (0 votes)

Tabs too difficult? Try these video lessons and learn fast.
                -------------------------------------------------------------------------------
			     WAR WITHIN A BREATH - Rage Against the Machine
-------------------------------------------------------------------------------



Tuning:Drop D

riff:
0:00
Gb|------------|
Db|-12/15\12---|x4
Ab|------------|
Db|------------|

verse:
0:10
Gb|------------------------|
Db|-x-xxx-xx-xx-12/15\12-x-|x16
Ab|------------------------|
Db|------------------------|

chorus:
0:48
Gb|-------------|
Db|-------------|x8
Ab|-------3-5---|
Db|-0-3-5-----3-|

riff:
1:08
Gb|------------|
Db|-12/15\12---|x4
Ab|------------|
Db|------------|

verse:
1:18
Gb|------------------------|
Db|-x-xxx-xx-xx-12/15\12-x-|x16
Ab|------------------------|
Db|------------------------|


pre-chorus:
1:55
Gb|-x-x-x-x-x-x-x-x-x-x-x-x-x-x-x-x-|
Db|-x-x-x-x-x-x-x-x-x-x-x-x-x-x-x-x-|x2
Ab|-x-x-x-x-x-x-x-x-x-x-x-x-x-x-x-x-|
Db|-x-x-x-x-x-x-x-x-x-x-x-x-x-x-x-x-|

chorus:
2:00
Gb|-------------|   |-----------------|
Db|-------------|x7 |-----------------|
Ab|-------3-5---|   |-------3-5-------|
Db|-0-3-5-----3-|   |-0-3-5-----3-0---|

rest for a while

chorus:
2:42
Gb|-------------|
Db|-------------|x16
Ab|-------3-5---|
Db|-0-3-5-----3-|

| /  slide up
| \  slide down
| h  hammer-on
| p  pull-off
| ~  vibrato
| +  harmonic
| x  Mute note
===============================================================================
            
Tabs too difficult? Try these video lessons and learn fast.


comments powered by Disqus
↑ Back to top | Tablatures and chords are parodies/interpretations of the original songs. You may use it for private study, scholarship, research or language learning purposes only