» » »

Rage Against The Machine, War Within A Breath Tabs (ver.3)

Artists:  A B C D E F G H I J K L M N O P Q R S T U V W X Y Z # 

War Within A Breath Tabs (ver.3)

Rage Against The Machine Tabs
 Rating:
4/5 (4 votes)
War Within A Breath lessons Tabs too difficult? Try these video lessons and learn fast
1
                Mike Strobel
war within a breath
rage against the machine
tuning- drop d then a half step down (Eb,Bb,Gb,Db,Ab,Db)

intro/verse
e--------------22-----
b--6-6-6-6-6----------
g--5-5-5-5-5----------
d--4-4-4-4-4----------
a--5-5-5-5-5----------
d---------------------

pre chorus
e----------------------------------------------
b----------------------------------------------
g----14-14------13-13----12-12-----11-11-------
d-12---------12--------12--------12------------
a----------------------------------------------
d----------------------------------------------

chorus
e--------------
b--------------
g--------------
d--------------
a--------3-5---
d--0-3-5-----3-

before second chorus
e-x-x-x-x-x-x-x-x-
b-x-x-x-x-x-x-x-x-
g-x-x-x-x-x-x-x-x-
d-x-x-x-x-x-x-x-x-
a-x-x-x-x-x-x-x-x-
d-x-x-x-x-x-x-x-x-

breakdown
e---------------------------
b---------------------------
g--2-2--2/4-4--4/6--6/2/4/2-
d--0-0--0-0-0--0-0--0-0-0-0-
a--0-0--0-0-0--0-0--0-0-0-0-
d--0-0--0-0-0--0-0--0-0-0-0-
            
Submit corrections

comments powered by Disqus
↑ Back to top | Rage Against The Machine Tabs for War Within A Breath. Lyrics for acoustic guitar and electric guitar. 1 Tablatures and chords are parodies/interpretations of the original songs. You may use it for private study, scholarship, research or language learning purposes only