>
 >
Wake Up Propper

Wake Up Propper Guitar Tabs

Rage Against The Machine - Wake Up Propper chords, tabs, tablatures, lyrics

Guitar lessons | Add/correct | Request | Top 50 tabs Artists:  A B C D E F G H I J K L M N O P Q R S T U V W X Y Z 0-9

Wake Up Propper Guitar Tabs – Rage Against The Machine

CD, Sheet music, Poster

Do you like Wake Up Propper? Share with your friends now
Tabs

hi everyone, i made this tab because i was looking how to play this song and i could not find any
tabs that where good, i found good sections in different tabs, so i made a good tab incorporating
all the good stuff of other tabs and some of my own stuff, for example i couldant find a tab that
had got the main riff right but they were close so i made it right.
when you look at this tab and listen to the music and follow it through dont be out off but alot
of numbers together, i suggest picking up your guitar and and playing it slowley till u get it 
right then it will sound good and u can make most of my hard work.
please Enjoy!!

==key==

\ = slide down
b = bend
x = rythem click, or wha-wha
h = hammer on
p = pull off
~ = vibrato

Tune to drop D
DADGBE


[intro]
|---------------|
|---------------|
|7--------------|
|---------------|
|5--------------|
|---------------|

Fade in


|----------------|----------------|----------------|----------------|           
|----------------|------- --------|----------------|----------------|
|77777-77777 7777|77777-77777 7777|77777-77777 7777|77777-77777 7777|two times
|66666-66666-6666|77777-77777-7777|66666-66666-6666|77777-77777-7777|
|55555-55555-5555|55555-55555-5555|55555-55555-5555|55555-55555-5555|
|----------------|----------------|----------------|----------------|

|--------------------------|
|--------------------------|second guitar plays this either hammer on from the 5th fret of
|--------------------------|bend the string at the 5th fret, this plays under the intro.
|--------------------------|
|--5555555555-666666666666-|
|--------------------------|


|----------------|0---------------|----------------|1010101010101010|
|----------------|0---------------|----------------|1414141414141414|bend string b string
|----------------|0---------------|----------------|----------------|
|----------------|2---------------|----------------|----------------|
|0---------------|3---------------|0---------------|----------------|
|0---------------|----------------|0---------------|----------------|

[mainriff]
|----------------|----------------|----------------|--------------------|
|----------------|----------------|----------------|--------------------|
|----------------|----------------|----------------|--------------------|
|----------------|----------------|----------------|--------------------|
|---3--23--------|---3--23--------|---3--23--------|---3---5h7-7h8-8h10\|
|000-0---0-3-5032|000-0---0-3-5032|000-0---0-3-5032|000--0--------------|

|----------------|----------------|----------------|--------------------|
|----------------|----------------|----------------|--------------------|
|----------------|----------------|----------------|----777777777777777-|
|----------------|----------------|----------------|--------------------|
|---3-023-0------|---3-023-0------|---3-023-0------|--------------------|
|000-------3-5323|000-------3-5323|000-------3-5323|000-----------------|


verse 1
|----------------|----------------|----------------|----------------|
|----------------|----------------|----------------|----------------| the verse uses wha-wha but 
|----------------|----------------|----------------|----------------| i dont own a wha-wha pedal
|--xx3-xx5-x-----|--xx3-xx5-x-----|--xx3-xx5-x-----|--xx3-xx5-x-----|so i dont know how to use it
|35xx-5xx-3x3--4-|35xx-5xx-3x3--4-|35xx-5xx-3x3--4-|35xx-5xx-3x3--4-|so u will have to figure
|----------------|----------------|----------------|----------------|it out urself

|----------------|----------------|----------------|----------------|
|----------------|----------------|----------------|----------------|
|----------------|----------------|----------------|----------------|
|--xx3-xx5-x-----|--xx3-xx5-x-----|--xx3-xx5-x-----|----------------|
|35xx-5xx-3x3--4-|35xx-5xx-3x3--4-|35xx-5xx-3x3--4-|35--------------|
|----------------|----------------|----------------|----------------|

|----------------|----------------|----------------|-----------------|
|----------------|----------------|----------------|-----------------|
|----------------|----------------|----------------|-10101010101010\-|
|--xx3-xx5-x-----|--xx3-xx5-x-----|--xx3-xx5-x-----|-10101010101010\-|
|35xx-5xx-3x3--4-|35xx-5xx-3x3--4-|35xx-5xx-3x3--4-|-----------------|
|----------------|----------------|----------------|-----------------|
						    there 10's if u diddnt know
|----------------|----------------|----------------|----------------|
|----------------|----------------|----------------|----------------|
|----------------|----------------|----------------|----------------|
|--xx3-xx5-x-----|--xx3-xx5-x-----|--xx3-xx5-x-----|----------------|
|35xx-5xx-3x3--4-|35xx-5xx-3x3--4-|35xx-5xx-3x3--4-|35------\-------|
|----------------|----------------|----------------|----------------|


[mainriff]
|----------------|----------------|----------------|--------------------|
|----------------|----------------|----------------|--------------------|
|----------------|----------------|----------------|--------------------|
|----------------|----------------|----------------|--------------------|
|---3--23--------|---3--23--------|---3--23--------|---3---5h7-7h8-8h10\|
|000-0---0-3-5032|000-0---0-3-5032|000-0---0-3-5032|000--0--------------|

|----------------|----------------|----------------|--------------------|
|----------------|----------------|----------------|--------------------|
|----------------|----------------|----------------|--------------------|
|----------------|----------------|----------------|--------------------|
|---3--23--------|---3--23--------|---3--23--------|---natural-harmonics|
|000-0---0-3-5032|000-0---0-3-5032|000-0---0-3-5032|0--7-5-4-3----------|


verse 1
|----------------|----------------|----------------|--------------------|
|----------------|----------------|----------------|--------------------|this end bit might not
|----------------|----------------|----------------|--------------------|be right, but it sounds
|--xx3-xx5-x-----|--xx3-xx5-x-----|--xx3-xx5-x-----|-----3-5-5-6-7-6-5-3|good, just watch
|35xx-5xx-3x3--4-|35xx-5xx-3x3--4-|35xx-5xx-3x3--4-|3-5-5---------------|the timing. may sound
|----------------|----------------|----------------|--------------------|deeper cos of bass

|----------------|----------------|----------------|----------------|
|----------------|----------------|----------------|----------------|
|----------------|----------------|----------------|----------------|
|--xx3-xx5-x-----|--xx3-xx5-x-----|--xx3-xx5-x-----|----------------|
|35xx-5xx-3x3--4-|35xx-5xx-3x3--4-|35xx-5xx-3x3--4-|35--------------|
|----------------|----------------|----------------|----------------|

|----------------|----------------|----------------|-------------------------|this bit is prob
|----------------|----------------|----------------|-------------------------|wrong but will 
|----------------|----------------|----------------|-------------------------|sound good playing 
|--xx3-xx5-x-----|--xx3-xx5-x-----|--xx3-xx5-x-----|-------------------------|live, not exact 
|35xx-5xx-3x3--4-|35xx-5xx-3x3--4-|35xx-5xx-3x3--4-|-5h7p5h7p5h7p5h7---------|number
|----------------|----------------|----------------|-------------------------|

|----------------|----------------|----------------|----------------|
|----------------|----------------|----------------|----------------|
|----------------|----------------|----------------|----------------|
|--xx3-xx5-x-----|--xx3-xx5-x-----|--xx3-xx5-x-----|----------------|
|35xx-5xx-3x3--4-|35xx-5xx-3x3--4-|35xx-5xx-3x3--4-|35--------------|
|----------------|----------------|----------------|----------------|


middlebit
|----------------|----------------|----------------|----------------|
|----------------|----------------|----------------|----------------|
|7777777777779910|12 11 9995555555|5555555555559910|7777777777777777|	\
|xxxxxxxxxxxxxxxx|xxxxxxxxxxxxxxxx|xxxxxxxxxxxxxxxx|xxxxxxxxxxxxxxxx|	|
|5555555555557788|10 9997773333333|3333333333337788|5555555555555555|	|
|----------------|----------------|----------------|----------------|	| some other tab sed
									| uses a talk box
|----------------|----------------|----------------|----------------|	|
|----------------|----------------|----------------|----------------|	|
|7777777777779910|12 11 9995555555|5555555555559910|777777777-------|	|
|xxxxxxxxxxxxxxxx|xxxxxxxxxxxxxxxx|xxxxxxxxxxxxxxxx|xxxxxxxxx-------|	/
|5555555555557788|10 9997773333333|3333333333337788|555555555-------|
|----------------|----------------|----------------|----------------|
							   

|----------------|----------------|----------------|-----------------|	
|----------------|----------------|----------------|-----------------|	
|----------------|----------------|----------------|-----------------|	
|----------------|0---------------|3---------------|0----------------|	
|6535035---------|0-------6535035-|3-------6535035-|0-----6535035----|
|6535035---------|0-------6535035-|3-------6535035-|0-----6535035----|
palm mute		Palm mute	Palm mute	Pam mute			   

|------------------------|
|------------------------|
|------------------------|
|------------------------|
|-6535035-6535035-6535035|
|-6535035-6535035-6535035|
palm mute
|----------------|       
|----------------|     When u come to do it the 5th time gradualy soften the palm mute
|----------------|     untill you are not palm muteing at all  
|----------------| x 8
|0-5-3-0-3-0-3-5-|
|0-5-3-0-3-0-3-5-|
Palm mute				

|----------------|----------------|----------------|----------------|
|----------------|----------------|----------------|----------------|	\
|----------------|----------------|----------------|----------------|	|
|----------------|----------------|----------------|----------------|	|
|5555--55555-5555|5555--55555-5555|5555--55555-5555|5555--55555-5555|	|
|----------------|----------------|----------------|----------------|	|
									|  palm muted
|----------------|----------------|----------------|----------------|	|
|----------------|----------------|----------------|----------------|	|
|----------------|----------------|----------------|----------------|	|
|----------------|----------------|----------------|----------------|	/
|5555--55555-5555|5555--55555-5555|5555--55555-5555|5555--55555-5555|
|----------------|----------------|----------------|----------------|


|----------------|----------------|----------------|----------------|
|----------------|----------------|----------------|----------------|
|77777-77777-7777|77777-77777-7777|77777-77777-7777|77777-77777-7777|    2 times
|66666-66666-6666|77777-77777-7777|66666-66666-6666|77777-77777-7777|
|55555-55555-5555|55555-55555-5555|55555-55555-5555|55555-55555-5555|
|----------------|----------------|----------------|----------------|

|10-10-10-10-10-10-|10~~~~~~~~~~~~~~|hold the last bend and gradually release the bend
|14b14b14b14b14b14b|14~~~~~~~~~~~~~~|untill the sound goes
|------------------|----------------|
|------------------|----------------|
|------------------|----------------|
|------------------|----------------|

|----------------|0---------------|----------------|0---------------|
|----------------|0---------------|----------------|0---------------|
|----------------|0---------------|----------------|0---------------|
|----------------|2---------------|----------------|2---------------|
|0---------------|3---------------|0---------------|3---------------|
|0---------------|----------------|0---------------|----------------|

|----------------|0---------------|-----0-----------|10-10-10-10-10-10-10-10-|
|----------------|0---------------|-----0-----------|14b14b14b14b14b14b14b14b|
|----------------|0---------------|-----0-----------|------------------------|
|----------------|2---------------|-----2-----------|------------------------|
|0---------------|3---------------|0----3---0-------|------------------------|
|0---------------|----------------|0--------0-------|------------------------|


[mainriff]
|----------------|----------------|----------------|--------------------|
|----------------|----------------|----------------|--------------------|
|----------------|----------------|----------------|--------------------|
|----------------|----------------|----------------|--------------------|
|---3--23--------|---3--23--------|---3--23--------|---3---5h7-7h8-8h10\|
|000-0---0-3-5032|000-0---0-3-5032|000-0---0-3-5032|000--0--------------|

|----------------|----------------|----------------|
|----------------|----------------|----------------|
|----------------|----------------|----------------|
|----------------|----------------|----------------|
|---3-023-0------|---3-023-0------|---3-023-0------|
|000-------3-5323|000-------3-5323|000-------3-5323|

[Wierd bit]

bend with slight pinch harmonics
|-------------------|----------------|----------------|----------------|thats solo bit just mess
|6b666b66b666b66b66b|----------------|----------------|----------------|around on the 6th 8th 
|-------------------|----------------|----------------|----------------|and maybe the 14th frett
|-------------------|----------------|0---------------|----------------|of the same string
|-------------------|----------------|0---------------|----------------|with some wierd effect it 
|-------------------|----------------|0---------------|----------------|might sound good.

peace n glory to u all, thanks RATM for a great song.





Comments


Popular Rage Against The Machine tabs & chords
*** Tha Police Bass Tabs
Bullet To The Head Bass Tabs
Know Your Enemy 2 Bass Tabs
Microphone Fiend 5 Bass Tabs
Ghost Of Tome Jode Chords
Born As Ghosts  2 Tabs
Killing In The Name 3 Tabs
Killing In The Name Live Tabs
People Of The Sun 2 Tabs
Zapatas Blood 1 Tabs


Song lyrics



↑ Back to top | Tablatures and chords are parodies/interpretations of the original songs. You may use it for private study, scholarship, research or language learning purposes only
© 2014 AZChords.com Contact us | Privacy policy | DMCA | Add/correct tabs | Request tabs | Top 50 tabs