» » »

Rage Against The Machine, Voice Of The Voiceless  Tabs (ver.3)

Artists:  A B C D E F G H I J K L M N O P Q R S T U V W X Y Z # 

Voice Of The Voiceless  Tabs (ver.3)

Rage Against The Machine Tabs
Rating:
0/5 (0 votes)
Voice Of The Voiceless  lessons Tabs too difficult? Try these video lessons and learn fast
                drop D tuning
p= pull off

e----------------------------------------------------
B---------------------------------------------------
G---------------------------------------------------
D---------------------------------------------------
A----5-3-5---3-0-3-------------------------------
D----------------------5-3-5---3-0-3-5-----------


e------------------------------------------------------------------------
B----------------------------------------------------------------------
G----------------------------------------------------------------------
D----------------------------------------------------5p3-------- 3x
A----5---8---5p3-5----5p3-5--------5---8---5p3-5---------5-----
D----------------------------------------------------------------------

e-------------------------------------------------------------------------------
B------------------------------------------------------------------------------
G------------------------------------------------------------------------------
D------------------------------------------------------------------------------
A----5---8---5p3-5---5p3-5-----5-3-5---3-0-3---------------------------
D-----------------------------------------------5-3-5---3-0-3-5-------
            
Submit corrections

comments powered by Disqus
↑ Back to top | Rage Against The Machine Tabs for Voice Of The Voiceless . Lyrics for acoustic guitar and electric guitar. Tablatures and chords are parodies/interpretations of the original songs. You may use it for private study, scholarship, research or language learning purposes only