» » »

Voice Of The Voiceless  Tabs (ver.1)

Artists:  A B C D E F G H I J K L M N O P Q R S T U V W X Y Z # 

Voice Of The Voiceless  Tabs (ver.1)

Rage Against The Machine
Rating:
0/5 (0 votes)

Hard to play? Try these video lessons and learn fast.
                NOTE: In the intro Morello use a Whammy pedal efects,
    but I think that could be this..

                Intro
    E-------------------------------|
    B13/15/18\17--------------------|
    G-0----0------------------------|
    D-------------------------------|
    A-------------------------------|
    D-------------------------------|


    |----------------------------------|
    |----------------------------------|
    |----------------------------------|
    |----------------------------------|    
    |---5-3-5--3-0-3-------------------|
    |-----------------5-3-5--3-0-3--5--|



                 pre-Chorus 
    |-----------------------------------------------|
    |-----------------------------------------------|
    |-----------------------------------------------|
    |--------3---------------------3----------------|
    |---3/5-----5p3-5--3h5-5--3/5-----5p3-5--3h5-5--|
    |-----------------------------------------------|


    |-----------------------------------------------|
    |-----------------------------------------------|
    |-----------------------------------------------|
    |--------3---------------------3----------------|
    |---3/5-----5p3-5--3h5-5--3/5-----5p3-5--3h5-5--|
    |-----------------------------------------------|


    |-----------------------------------------------|
    |-----------------------------------------------|
    |-----------------------------------------------|
    |--------3---------------------3----------------|
    |---3/5-----5p3-5--3h5-5--3/5-----5p3-5--3h5-5--|
    |-----------------------------------------------|


    |----------------------------------------------------|
    |----------------------------------------------------|
    |----------------------------------------------------|
    |--------3-------------------------------------------|
    |---3/5-----5p3-5--3h5-5-3-5--3-0-3------------------|
    |------------------------------------5-3-5--3-0-3--5-|


     (In this part,.. Whammy pedal again...jeje.)


                     Chorus
    |------------------------------------------------|
    |------------------------------------------------|
    |------------------------------------------------|
    |--------3---------------------3-----------------|
    |---3/5-----5p3-5--3h5-5--3/5-----5p3-5--5p3-5---|
    |------------------------------------------------|


    |-----------------------------------------------|
    |-----------------------------------------------|
    |-----------------------------------------------|
    |--------3---------------------3----------------|
    |---3/5-----5p3-5--3h5-5--3/5-----5p3-5--5p3-5--|
    |-----------------------------------------------|
            ¡¡You'll never silence the voice...!!




                ()Whammy pedal again()


    |-----------------------------------------------|
    |-----------------------------------------------|
    |-----------------------------------------------|
    |--------3---------------------3----------------|
    |---3/5-----5p3-5--3h5-5--3/5-----5p3-5--3h5-5--|
    |-----------------------------------------------|


    |-----------------------------------------------|
    |-----------------------------------------------|
    |-----------------------------------------------|
    |--------3---------------------3----------------|
    |---3/5-----5p3-5--3h5-5--3/5-----5p3-5--3h5-5--|
    |-----------------------------------------------|


    |-----------------------------------------------|
    |-----------------------------------------------|
    |-----------------------------------------------|
    |--------3---------------------3----------------|
    |---3/5-----5p3-5--3h5-5--3/5-----5p3-5--3h5-5--|
    |-----------------------------------------------|


    |----------------------------------------------------|
    |----------------------------------------------------|
    |----------------------------------------------------|
    |--------3-------------------------------------------|
    |---3/5-----5p3-5--3h5-5-3-5--3-0-3------------------|
    |------------------------------------5-3-5--3-0-3--5-|
     ¡¡you'll never silence the voice of the voiceless!!


                  and again... (the end)

    
                    Good luck!! brother..
            
Hard to play? Try these video lessons and learn fast. | Correct




comments powered by Disqus
↑ Back to top | Tablatures and chords are parodies/interpretations of the original songs. You may use it for private study, scholarship, research or language learning purposes only