» » »

The Narrows Tabs (ver.2)

Artists:  A B C D E F G H I J K L M N O P Q R S T U V W X Y Z # 

The Narrows Tabs (ver.2)

Rage Against The Machine
Rating:
0/5 (0 votes)

Hard to play? Try these video lessons and learn fast.
                Like Autologic (a great song), you
probably've never heard this song,
but it's good.

Intro
|----------------
|----------------
|----------------
|----------------
|-2------2------2
|-0------0------0
Repeat as much as 
and let it ring 
each time.

Main Riff
|---------------------------
|---------------------------
|---------------------------
|----9/7--------------------
|x-x-7/5-----7/5-5-5-----2-2
|--------x-x-5\3-3-3-x-x-0-0

Verse
|-------------------------------------
|-------------------------------------
|------------------------------------7
|-9-9-9-7--9-9-9-9-7--9-9-9-9-7--9-9--
|------------------------------------5
|-------------------------------------

Pre-Chorus
|----------------------------------|--------
|----------------------------------|--------
|----------------------------------|--------
|-9-9-9--------9-9-9--------9-9----|-9-8-7--
|----------------------------------|-------5
|-------7-7-7--------7-7-7------7-7|-------3

Chorus
|---------------------------
|---------------------------
|---------4/3---------------
|-----2---4/3------2-------0
|----------------------1-2--
|-0-0---0------0-0---0------

Pre-Solo Riff
|-----------
|-----------
|--------3^-
|-----------
|2----------
|-----------
Slowly bend up/down the 3rd fret and keep it bent there until you hit the 2nd fret again.

Sorry, can't tab the solo.

Download and listen to the song to find the riff order and stuff.
Sorry about the solo again. Please rate me on how good I did on everything else and not the solo.
            
Hard to play? Try these video lessons and learn fast. | Correct




comments powered by Disqus
↑ Back to top | Tablatures and chords are parodies/interpretations of the original songs. You may use it for private study, scholarship, research or language learning purposes only