>
 >
The Narrows

The Narrows Guitar Tabs

Rage Against The Machine - The Narrows chords, tabs, tablatures, lyrics

Guitar lessons | Add/correct | Request | Top 50 tabs Artists:  A B C D E F G H I J K L M N O P Q R S T U V W X Y Z 0-9

The Narrows Guitar Tabs – Rage Against The Machine

CD, Sheet music, Poster

Do you like The Narrows? Share with your friends now
Bass TabsTabsTabs v2
Standard Tuning

Intro

e|------------------------------------------------|
B|------------------------------------------------|
G|------------------------------------------------| Repeat
D|--2-----------------------2---------------------|
A|--2-----------------------2---------------------|
E|--0-----------------------0---------------------|

This part is edited on the version I have so I'm not sure what goes on in the transition between these riffs

Main Riff

e|-------------------------------|
B|-------------------------------|
G|-------------------------------| Repeat
D|--x-x-9/7-x-x------------------|
A|--x-x-7/5-x-x-7/5--5-5--x-2-2--|
E|--------------5/3--3-3--x-0-0--|

Verse Riff

e|-----------------------------------------|
B|-----------------------------------------|
G|-----------------------------------7b----| Repeat
D|-------9-7-9-9-7-9-7-9-9-7-9-7-9-9-------|
A|-----------------------------------------|
E|--7-7------------------------------------|

Bridge

part1

e|-----------------------------------------------|
B|-----------------------------------------------|
G|--9-9-9-9---------9-9-9-9---------9-9----------| Repeat
D|-----------------------------------------------| 
A|-----------7-7-7-----------7-7-7--------7-7-7--|
E|-----------------------------------------------|

part 2

e|-------------------|
B|-------------------|
G|--9-8-7------------|
D|-------------------|
A|-------------------|
E|----------3b-------|

Chorus

e|---------------------------------------|
B|------------9-8-9-8--------------------|
G|------------9-8-9-8--------------------|
D|---------------------------------------|
A|-------7-------------------7--------5--|
E|--0-0----0------------0-0----0--6-7----|

Bridge part 3

e|---------------------------------------------------|
B|---------------------------------------------------|
G|--9-9-9-9---------9-9-9-9---------9-9--------------|
D|---------------------------------------------------| 
A|-----------7-7-7-----------7-7-7--------7-7-7------|
E|-----------------------------------------------3b--|

Main Riff Variations

Variation 1

e|------------------------------|
B|------------------------------| 
G|------------------------------| This is the same as the original main riff but the last 2 power 
D|--x-x-9/7-x-x-----------------| chords are just a bit longer
A|--x-x-7/5-x-x-7/5--5-5--x-2-2-|
E|--------------5/3--3-3--x-0-0-|

Variation 2

e|------------------------------------|
B|------------------------------------|
G|------------------------------------|
D|--x-x-9/7-x-x-----------x-x-x-x-x-x-|
A|--x-x-7/5-x-x-7/5--5-5--x-x-x-x-x-x-|
E|--------------5/3--3-3--x-x-x-x-x-x-|

Pre solo

e|--------------------------|
B|--------------------------|
G|---------------------7b---|
D|--------------------------|
A|--------------------------|
E|--7-----------------------|

Solo

This probably uses the Whammy but I'm poor and don't have one so I'll guess...

e|------------------------------------|
B|------------------------------------|
G|--14b--14b--14b-14b----14b--14b-----|
D|------------------------------------| x2
A|------------------------------------|
E|------------------------------------|

e|------------------------------------|
B|------------------------------------|
G|------------------------------------|
D|------------------------------------|
A|---12b--12b--12b-12b----12b--12b----|
E|------------------------------------|

For the last part, first 2 time you bend the string and strike it twice whilst still bent, on the last one tremolo pick the bent string.

e|--------------------------------------------------|
B|---17b--17-17--17b--17-17--17b-17-17-17-17-17-17--|
G|--------------------------------------------------|
D|--------------------------------------------------|
A|--------------------------------------------------|
E|--------------------------------------------------|

Outro

e|-------------------|
B|-------------------|
G|-------------------|
D|--9-8-7-6-5-4------| 
A|--7-6-5-4-3-2-2----|
E|--------------0----|

After the outro it sounds like there's some notes picked but they're too faint and it doesn't matter.

           Song Order:

           Intro Riff x2
            Main Riff x8
           Verse Riff x8
   Bridge Riff part 1 x3
   Bridge Riff part 2 x1
          Chorus Riff x4
          Verse  Riff x6
   Bridge Riff part 1 x3
   Bridge Riff part 3 x1
   Bridge Riff part 1 x3
   Bridge Riff part 2 x1
          Chorus Riff x4
            Main Riff x1
Main Riff Variation 1 x1
Main Riff Variation 2 x1
            Main Riff x5
        Pre-Solo Riff x4
                 Solo x1
          Chorus Riff x4
                Outro x1





Comments


Popular Rage Against The Machine tabs & chords
Im Housin Bass Tabs
Im Housin 4 Bass Tabs
Township Rebellion Bass Tabs
Sleep Now In The Fire Drum Tabs
Born Without A Face 1 Tabs
F*** The Police 1 Tabs
How I Could Just Kill A Man 1 Tabs
Maggies Farm Dropd Tabs
Settle For Nothing 5 Tabs
War Within A Breath 1 Tabs


Song lyrics



↑ Back to top | Tablatures and chords are parodies/interpretations of the original songs. You may use it for private study, scholarship, research or language learning purposes only
© 2014 AZChords.com Contact us | Privacy policy | DMCA | Add/correct tabs | Request tabs | Top 50 tabs