» » »

Ghost Of Tom Joad Tabs (ver.2)

Artists:  A B C D E F G H I J K L M N O P Q R S T U V W X Y Z # 

Ghost Of Tom Joad Tabs (ver.2)

Rage Against The Machine
Rating:
0/5 (0 votes)

Hard to play? Try these video lessons and learn fast.
                one of the phattest songs on renegades
[song originally by bruce springsteen]
DROP D TUNING

Main riff:
e----------------------------------------------------------------
B----------------------------------------------------------------
G----------------------------------------------------------------
D----------------------------------------------------------------
A----5--3--0-------------3-------0--3----------------------------
D-0------------5--3--0------5------------------------------------


Verse:
e----------------------------------------------------------------
B----------------------------------------------------------------
G-------------(this part happened-for like 4X-then play part 2)--
D---5------------------------------5-----------------------------
A---5----3-------0--3--------------5---3-----0-------------------
D------------5----------------------------5-----0----------------

Verse2:
e-----more distorted---------------------------------------------
B----------------(then restart in part one)----(happens3x)-------
G----------------------------------------------------------------
D---5-55---------------------------------------------------------
A---5-----3--------0--33-----------------------------------------
D-------------5--------------------------------------------------

Interlude:
e----------------------------------------------------------------
B----------------------------------------------------------------
G--2///5\\\2///5--(fast and let it ring)--(repeat 3x)------------
D--2///5\\\2///5-------------------------------------------------
A-------------------------3-------0--3---------------------------
D-------------------------------5--------------------------------

e----------------------------------------------------------------
B----------------------------------------------------------------
G--3///7\\\3///7--(fast and let it ring)--(repeat 3x)------------
D--3///7\\\3///7-------------------------------------------------
A-------------------------3-------0--3---------------------------
D-------------------------------5--------------------------------     

e-----------------------------------------------------------------
B------------xxx-xxx-----------(finnish with)----10-10--10*-------
G---------xxx--xxx-------------------------------10-10--10*-------
D-------xxxx--xxx-----(then main) --------------------------------
A-----xxxx--xxxx--------------------------------------------------
D---xxx---xxxxx--------------------------*means let it ring-------


e-----------------
B--1414--14h------
G--1414--14h------
D--1414--14h------
A-----------------
D-----------------
            
Hard to play? Try these video lessons and learn fast. | Correct




comments powered by Disqus
↑ Back to top | Tablatures and chords are parodies/interpretations of the original songs. You may use it for private study, scholarship, research or language learning purposes only