>
 >
Take The Powwer Back

Take The Powwer Back Guitar Tabs

Rage Against The Machine - Take The Powwer Back chords, tabs, tablatures, lyrics

Guitar lessons | Add/correct | Request | Top 50 tabs Artists:  A B C D E F G H I J K L M N O P Q R S T U V W X Y Z 0-9

Take The Powwer Back Guitar Tabs – Rage Against The Machine

CD, Sheet music, Poster

Do you like Take The Powwer Back? Share with your friends now
Tabs
drop d tuning  dadgbe, . I havent figured out the whole song yet but what ive got
 so far is pretty dam accurate, please feel free to comment.

---------------------|--------|---------|--------|--------|-------------------
---------------------|--------|---------|--------|--------|-------------------
---------------------|--------|---------|--------|--------|-------------------
----------x-3-------3|--------|---------|--------|--------|-------------------
------3h5-----x-3h5--|--------|---------|--------|--------|-------------------
--0-0----------------|0-0-16/-|-0-0-14/-|0-0-13/-|0-0-12/-|-------------------
      intro/pre verus                                                         

----7-7-7-7-x-x-x-5-----------------------------------------------------------
------------x-x-x-------------------------------------------------------------
----5-5-5-5-x-x-x-3-----------------------------------------------------------
--0---------------------------------------------------------------------------
        verus                                                                 

----------------------------------------------------h22----h22|---------------
--------------------------------------------------------------|---------------
--------------12b-----------------------------12b-------------|---------------
-----7---5-7--------x-x-x-x-x-x-x----7---5-7------------------|----7---5------
-----5---3-5--------x-x-x-x-x-x-x----5---3-5------------------|----5---3------
---0---0------------x-x-x-x-x-x-x--0---0----------------------|--0---0--------
         chorus                                                  end with     

--------------------------------------------|---------------------------------
--------------------------------------------|---------------------------------
--------------------------------------------|---------------------------------
------2--2--2---3--3--3---5--5--5---3---3--3|-rpt-----------------------------
----3--3--3---3--3--3---3--3--3---3---3--3--|---------------------------------
--------------------------------------------|---------------------------------
                after solo thing                                              

-7-7-6-5-x-7-7-6-5-x-7-7-6-5-x-5-5-5-5/7/5------------------------------------
-5-5-4-3-x-5-5-4-3-x-5-5-4-3-x-3-3-3-3/5/3------------------------------------
            after solo thing thing





Comments


Popular Rage Against The Machine tabs & chords
Ashes In The Fall  2 Bass Tabs
Freedom 3 Bass Tabs
Microphone Fiend 5 Bass Tabs
People Of The Sun Bass Tabs
Wake Up Bass Tabs
Bomb Track And Guerilla Radio Tabs
Fistfull Of Steel Tabs
Sleep Now In The Fire-Riff Tabs
The Ghost Of Tom Joad Tabs
Tire Me Tabs


Song lyrics



↑ Back to top | Tablatures and chords are parodies/interpretations of the original songs. You may use it for private study, scholarship, research or language learning purposes only
© 2014 AZChords.com Contact us | Privacy policy | DMCA | Add/correct tabs | Request tabs | Top 50 tabs