» » »

Rage Against The Machine, Slept In The Fire Tabs (ver.1)

Artists:  A B C D E F G H I J K L M N O P Q R S T U V W X Y Z # 

Slept In The Fire Tabs (ver.1)

Rage Against The Machine Tabs
Rating:
0/5 (0 votes)
Slept In The Fire lessons Tabs too difficult? Try these video lessons and learn fast
                Tuning: Standard


Palm Muting = .
Slide =   /
Let Ring = r
Bend = b


Intro 		3x
E-----------------|----------------
B-----------------|7b-7b-77-5-7-5--
G---------5b------|7b-7b-77-5-7-5--
D-7-7-5-7---7-7---|7b-7b-77-5-7-5--
A-0-0-0-0---0-0---|----------------
E-----------------|----------------


Verse		
E---------------
B---------------
G---------------
D-------10------
A---------------
E-7r-------7----


Chorus		3x
E-----------------|----------------
B-----------------|7b-7b-77-5-7-5--
G---------5b------|7b-7b-77-5-7-5--
D-7-7-5-7---7-7---|7b-7b-77-5-7-5--
A-0-0-0-0---0-0---|----------------
E-----------------|----------------

Solo         no idea, seems like Toms, trademark, Toggle switch techique while messing around with feedback
E-
B-
G-
D-
A-
E-

Order:
Intro      4x
Verse      6x
Chorus     2x
Verse      6x
Chorus     2x
Verse      6x
Chorus     6x  w/solo
            
Submit corrections

comments powered by Disqus
↑ Back to top | Rage Against The Machine Tabs for Slept In The Fire. Lyrics for acoustic guitar and electric guitar. Tablatures and chords are parodies/interpretations of the original songs. You may use it for private study, scholarship, research or language learning purposes only