» » »

Sleep Now In The Fire-Riff Tabs (ver.1)

Artists:  A B C D E F G H I J K L M N O P Q R S T U V W X Y Z # 

Sleep Now In The Fire-Riff Tabs (ver.1)

Rage Against The Machine
Rating:
0/5 (0 votes)

Hard to play? Try these video lessons and learn fast.
                Amp settings:
Drive-6
Treble-8
Middle-7
Bass-3
Reverb-0
Key:
Bend-\
1/4 Bend-~>
p-pull off
                        
In this song Morello uses his custmised Kramer (with it's wide fingerboard),and a MXR Phase 90 pedal.

Intro/Main Riff/Chorus
|-----------------------|-----------------------|-----------------------|
|-----------------------|-----------------------|-----------------------|
|---------------5~>-----|---------------5~>-----|---------------5~>-----|
|---7--7--5--7------7---|---7--7--5--7------7---|---7--7--5--7------7---|
|---0--0--0--0------0---|---0--0--0--0------0---|---0--0--0--0------0---|
|-----------------------|-----------------------|-----------------------|

|--------------------------------|
|---7--8\--7---------------------|
|---7--8\--7---5--7--5-----------|
|-----------------------7p5--7---|   do the hole thing 4 times for the Intro
|--------------------------------|   and for the Chorus.
|--------------------------------|

Strike the strings hard,and don't worry about any erroneous notes.The 5th sting rings through out the hole riff so don't feel you have to mute it when you play bar 4.Take on not bend the C string too sharp,as it's a blues
`curl` than a full semitone.


thanks! please rate this tab!!!!!!!!!!!!!!!!!!!!!!!!!!!!
            
Hard to play? Try these video lessons and learn fast. | Correct




comments powered by Disqus
↑ Back to top | Tablatures and chords are parodies/interpretations of the original songs. You may use it for private study, scholarship, research or language learning purposes only