» » »

Sleep Now In The Fire Tabs (ver.2)

Artists:  A B C D E F G H I J K L M N O P Q R S T U V W X Y Z # 

Sleep Now In The Fire Tabs (ver.2)

Rage Against The Machine
Rating:
0/5 (0 votes)

Tabs too difficult? Try these video lessons and learn fast.
                intro/rit
e-----------------------------------------------
B-----------------------------------------------
G---7-7-7--5--7--10--7------7-7-7--5--7--10--7--
D---7-7-7--5--7--10--7------7-7-7--5--7--10--7--
A---5-5-5--3--5--8---5------5-5-5--3--5--8---5--


e-----------------------------------------------
B-----------------------------------------------
G---7-7-7--5--7--10---12--14-12-10-7-7-5--------
D---7-7-7--5--7--10---12--14-12-10-7-7-5--------
A---5-5-5--3--5--8----10--12-10--8-5-5-3--------

in the verse there is only the bass
            
Tabs too difficult? Try these video lessons and learn fast.




comments powered by Disqus
↑ Back to top | Tablatures and chords are parodies/interpretations of the original songs. You may use it for private study, scholarship, research or language learning purposes only