» » »

Rage Against The Machine, Renegadez Of Funk Tabs (ver.1)

Artists:  A B C D E F G H I J K L M N O P Q R S T U V W X Y Z # 

Renegadez Of Funk Tabs (ver.1)

Rage Against The Machine Tabs
Rating:
0/5 (0 votes)
Renegadez Of Funk lessons Tabs too difficult? Try these video lessons and learn fast
                rage against the machine
                                   renegades of funk
                           all music by rage against the machine

Drop D tuning-

wah/on
E-12-8-12-8-12-8-12-8-13-10-13-10-13-10-13-10----
B------------------------------------------------
G-------------------------------------------------
D----------------------------------repeat x2
A----------------------------------
E----------------------------------
          Intro-use wahwah pedal

wah/off
E-----------------------------------
B-----------------------------------
G-----------------------------------
D-----------------------------------
A--3-5---3-5---3-5---3h-5------------
E------0-----0-----0-3h-5------------
Verse-listen to song to get right rhythm

wah/on
E-----3-5-7-3-----------------------
B-3-6---------3---------------------
G-----------------------------------
D-----------------------------------
A-----------------------------------
E-----------------------------------
"were the renegades of funk,funk renegades of funk,funk"
 Chorus-listen to song to get right ryhthm

wah/off
E---------------------------------------
B---------------------------------------
G---------------------------------------
D---------------------------------------
A-5h-7-----------------------------------
E-5h-7-----------------------------------
Another part used in verse.. repeat a few times
listen to song to hear when its played

wah/off
E----------------------------------------
B----------------------------------------
G--4-bend up and down slowly-------------
D----------------------------------------
A----------------------------------------
E----------------------------------------
play this riff right before the song goes into the part...
"jam sucker jam, yea jam sucker jam". 


       thats all the riffs you need! In order! please rate or comment. :-D
 
                             -KingSam-
            
Submit corrections

comments powered by Disqus
↑ Back to top | Rage Against The Machine Tabs for Renegadez Of Funk. Lyrics for acoustic guitar and electric guitar. Tablatures and chords are parodies/interpretations of the original songs. You may use it for private study, scholarship, research or language learning purposes only