» » »

Rage Against The Machine, Renegade Of Funk Tabs (ver.5)

Artists:  A B C D E F G H I J K L M N O P Q R S T U V W X Y Z # 

Renegade Of Funk Tabs (ver.5)

Rage Against The Machine Tabs
 Rating:
4/5 (4 votes)
Renegade Of Funk lessons Tabs too difficult? Try these video lessons and learn fast
1
                Band: Rage Against The Machine
Tuning: Drop D


This is one of my favorite songs, and I 
really like it. For this song use a DigiTech
whammy pedal and set it up 2 octaves
and also use a wah. Hope you enjoy this tab.




Intro:       X4      0:32           Verse 1:     X3        0:22
e|---------------------------------||---------------------------------|
b|---------------------------------||---------------------------------|
g|---------------------------------||---------------------------------|
d|-2---2---2---2---3---3---3---3---||-5/7----5/7----5/7---------------|
a|---3---3---3---3---5---5---5---5-||-3/5--0-3/5--0-3/5--0-3h5--------|
d|---------------------------------||------0------0------0-3h5--------|
 |-------use whammy and wah--------||--------no whammy or wah---------|






Chorus 1:  X2     0:15      Verse 2:    X2      0:16
e|-------------------------||---------------------------------|
b|-------------------------||---------------------------------|
g|-------------------------||---------------------------------|
d|-------------------------||-5/7----5/7----5/7---------------|
a|-------0-3-----3---------||-3/5--0-3/5--0-3/5--0-3h5--------|
d|-0-3-5-----------0-------||------0------0------0-3h5--------|
 |---use whammy and wah----||--------no whammy or wah---------|
                                    
                          
                       
                      
                                     
          X2       0:16             X2      0:16             
e|-----------------------||---------------------------------|
b|-----------------------||---------------------------------|
g|-----------------------||---------------------------------|
d|-----------------------||-5/7----5/7----5/7---------------|
a|-5-5--------5-5--------||-3/5--0-3/5--0-3/5--0-3h5--------|
d|-----0----------0------||------0------0------0-3h5--------|
 |---no whammy or wah----||--------no whammy or wah---------|






Chorus 2:  X2     0:15      Bridge:   X2      0:17
e|-------------------------||---------------------------------|
b|-------------------------||---------------------------------|
g|-------------------------||---------------------------------|
d|-------------------------||-2---2---2---2---3---3---3---3---|
a|-------0-3-----3---------||---3---3---3---3---5---5---5---5-|
d|-0-3-5-----------0-------||---------------------------------|
 |---use whammy and wah----||-------use whammy and wah--------|







Verse 3:    X2      0:15            Build up 1:  X1  0:08  
e|---------------------------------||---------------------|
b|---------------------------------||---------------------|
g|---------------------------------||---------------------|
d|-5/7----5/7----5/7---------------||---------------------|
a|-3/5--0-3/5--0-3/5--0-3h5--------||-5-7-------5-7-------|
d|------0------0------0-3h5--------||-5-7-------5-7-------|
 |--------no whammy or wah---------||---no whammy or wah--|




       0:08
 |-------w-------| Build up 2:  X12  0:20
e|---------------||------------------------|
b|---------------||------------------------|
g|---------------||-3slowbend4slowrelease3-|
d|---------------||------------------------|
a|---------------||------------------------|
d|---------------||------------------------|
                  |----no whammy or wah----|





Verse 4:    X4       0:32           Outro:  X4        0:32
e|---------------------------------||-------------------------|
b|---------------------------------||-------------------------|
g|---------------------------------||-------------------------|
d|-5/7----5/7----5/7---------------||-------------------------|
a|-3/5--0-3/5--0-3/5--0-3h5--------||-------0-3-----3---------|
d|------0------0------0-3h5--------||-0-3-5-----------0-------|
 |--------no whammy or wah---------||---use whammy and wah----|


Thats it! Enjoy this awesome song!
If it needs any fixing please tell me.

|--------------|
| Guitar Key:  |
|              |
| w= Wait      |
| /= Slide Up  |
| h= Hammer on |
|--------------|
            
Submit corrections

comments powered by Disqus
↑ Back to top | Rage Against The Machine Tabs for Renegade Of Funk. Lyrics for acoustic guitar and electric guitar. 1 Tablatures and chords are parodies/interpretations of the original songs. You may use it for private study, scholarship, research or language learning purposes only