» » »

Rage Against The Machine Zapata's Blood Tabs (ver.1)

Artists:  A B C D E F G H I J K L M N O P Q R S T U V W X Y Z # 

Rage Against The Machine Zapata's Blood Tabs (ver.1)

Rage Against The Machine
Rating:
0/5 (0 votes)

Hard to play? Try these video lessons and learn fast.
                Rage Against the Machine
Zapata's Blood
Standard Tuning
Verse- w/ delay
e|-------------------------------------------------------------|
b|-------------------------------------------------------------|
g|-------------------------------------------------------------|
d|---x-x-12p10h12p10-------------x-x-12p10h12p10---------------|
a|-------------------------------------------------------------|
e|-------------------------------------------------------------|


e|--x----------------------------------------------------------|
b|--x---strum all strings behind nut---------------------------|
g|--x----------------------------------------------------------|
d|--x---slowly lower pitch from 2 octaves down to normal pitch-|
a|--x----------------------------------------------------------|
e|--x----------------------------------------------------------|

Repeat Verse


e|-------------------------------------------------------------|
b|--------------------x-x--10-/------------------------x-x-10-/|
g|--------------------x-x--10-/------------------------x-x-10-/|
d|--x-x-12p10h12-------------------x-x-12p10h12----------------|
a|-------------------------------------------------------------|
e|-----------------------------------------------------------
            
Hard to play? Try these video lessons and learn fast. | Correct




comments powered by Disqus
↑ Back to top | Tablatures and chords are parodies/interpretations of the original songs. You may use it for private study, scholarship, research or language learning purposes only