» » »

Producer Tabs (ver.3)

Artists:  A B C D E F G H I J K L M N O P Q R S T U V W X Y Z # 

Producer Tabs (ver.3)

Rage Against The Machine
Rating:
0/5 (0 votes)

Hard to play? Try these video lessons and learn fast.
                another fantastic yet unreleased ratm song. play it even if u 
havn't heard it before-its phat
intro

E|-----------------------|
B|-----------------------|
G|-----------------------|
D|------------------5h6--|
A|--2--5--0-3-0-4-0------|
E|--0--3-----------------|

End with

E|-----|
B|-----|
G|--7--|
D|--7--|
A|--5--|
E|--0--|

Verse


E|--(5)-----------------------|
B|-----------------------(7)--|   (x)= Natural Harmonics
G|------------(5)-------------|
D|----------------------------|
A|----------------------------|
E|----------------------------|

Pre-Chorus


E|--0--|
B|--7--|
G|-----|
D|-----|
A|-----|
E|-----|

Verse


E|--0--|
B|--7--|
G|--0--|
D|-----|
A|-----|
E|-----|

E|--------------------------|
B|--------------------------|
G|--------------------------|
D|--------------------------|
A|--2-2-5-2-5-22-2-2-5-2-7--|
E|--0-0-3-0-3-00-0-0-3-0-5--|

Outro


There is some wierd whammy *** played here. I dont have that pedal
so i cant figure it out.
otherwise enjoyr.a.t.m
            
Hard to play? Try these video lessons and learn fast. | Correct




comments powered by Disqus
↑ Back to top | Tablatures and chords are parodies/interpretations of the original songs. You may use it for private study, scholarship, research or language learning purposes only