» » »

Rage Against The Machine, Producer Tabs (ver.2)

Artists:  A B C D E F G H I J K L M N O P Q R S T U V W X Y Z # 

Producer Tabs (ver.2)

Rage Against The Machine Tabs
 Rating:
4/5 (4 votes)
Producer lessons Tabs too difficult? Try these video lessons and learn fast
1
                Tablature: Guitar


EFX: None
 
Tuning: E(it might be D but im not sure),A,D,G.
 
Intro and Bridge 
G---------------------------------------------------------| 
D---------------------------------------------------------| 
A-------------------5-7-5--------------------------------|
E--0--3---0-0-3-0---------------------------------------|


Verse 
G3-Slide--6---------------------------------3Slide-6-----------------------------------| 
D---------------------------------------------------------------------------------------|
A------------7-----5-4-2-4--------2-4-2-4-----------7-----5-4-2-4------2-4-2-4-2--| 
D------------------------------2-4-------------------------------------2-4-------------| 


Chorus 
G-------------------------------| 
D-------------------------------|
A-------------------------------|
E--2-2-5-2-5-2-0-2-2-5-2-5--|
            
Submit corrections

comments powered by Disqus
↑ Back to top | Rage Against The Machine Tabs for Producer. Lyrics for acoustic guitar and electric guitar. 1 Tablatures and chords are parodies/interpretations of the original songs. You may use it for private study, scholarship, research or language learning purposes only