» » »

Rage Against The Machine, Producer Tabs (ver.1)

Artists:  A B C D E F G H I J K L M N O P Q R S T U V W X Y Z # 

Producer Tabs (ver.1)

Rage Against The Machine Tabs
Rating:
0/5 (0 votes)
Producer lessons Tabs too difficult? Try these video lessons and learn fast
                Dropped D tuning

Pull-offs, etc are noted above the tab to make it easier to read.

INTRO
|-----------------------------|
|-----------------------------|
|----------------p---p---h----|
|----------------------0-2-0--|
|--2----5----0-2-0-2-0--------|
|--2----2----0-2-0-2-0-------|

VERSE
|--(5)--------------------|
|--------------------(7)--|
|-------------(5)---------|
|-------------------------|
|-------------------------|
|-------------------------|
Bracketed notes are natural harmonics...

PRE-CHORUS
|--0--0--0--0--0--0--0--0--0--0--0--0--0--0--0--0--|
|--7--7--7--7--7--7--7--7--7--7--7--7--7--7--7--7--|
|--0--0--0--0--0--0--0--0--0--0--0--0--0--0--0--0--|
|--------------------------------------------------|
|--------------------------------------------------|
|--------------------------------------------------|

CHORUS
|---------------------------------------------|
|---------------------------------------------|
|---------------------------------------------|
|---------------------------------------------|
|---------------------------------------------|
|--2--2--5--2--5--2--0----2----2--5--2--5--2--|

OUTRO
Tom just screws around with his whammy pedal, with a little trick i discovered myself, but won't reveal because it's too cool.
            
Submit corrections

comments powered by Disqus
↑ Back to top | Rage Against The Machine Tabs for Producer. Lyrics for acoustic guitar and electric guitar. Tablatures and chords are parodies/interpretations of the original songs. You may use it for private study, scholarship, research or language learning purposes only