» » »

Pistol Grip Pump Tabs (ver.1)

Artists:  A B C D E F G H I J K L M N O P Q R S T U V W X Y Z # 

Pistol Grip Pump Tabs (ver.1)

Rage Against The Machine
Rating:
0/5 (0 votes)

Hard to play? Try these video lessons and learn fast.
                
This is a very a kickass song and a very basic one to play that is 
mainly bass, but the guitar adds depth in the chorus.....enjoy!

(Dropped D Tuning)

Intro:
Need a wah pedal and a guitar with a toggle feature to
turn a pickup off...

into
w/ toggle on/off
e-------------------------------------------------------
b-------------------------------------------------------
g-14-14-12-12-14-14-12-12-14-14-12-12-14-14-12-12-14-14-
d-------------------------------------------------------
a-------------------------------------------------------
d-------------------------------------------------------

e--------------------------------------------
b--------------------------------------------
g-14-14-12-12-14-----------------------------
d--------------------------------------------
a--------------------------------------------
d--------------------------------------------
I think I'm missing a note here, but oh well!

Verse/chorus

There are two ways u can play this and both sound right.

Figure 1
e---------------------
b---------------------
g---------------------
d---------------------
a-5-0-2---------------
d-5-0-2---------------

Figure 2
e---------------------
b---------------------
g---------------------
d---------------------
a-5/7-0-2-------------
d-5/7-0-2-------------

Solo: same as intro

Pistol grip pump on my lap at all times (3x)
They can be f**king with other niggas sh*t, but they cant be f**king with mine Pistol grip pump on my lap at all times (3x)
They can be f**king with other niggas sh*t, but they cant be f**king with mine

I was raised in the hood called what the diffrence
The brothers in the hood be Chivalrous
So i rest defense on my ligaments
Pistol grip pump on my lap, riskin it
Full life living it, never giving it back
Too late for slipping, so slack up
On my lap its on your lips so track shot
A steel dick more clip for pump but
All im saying there aint no question who the man is
In my civic or in this show biz
I drill the fool, kill the fool
Come on what you say?
i think i can take care of all you muthaf**kas don't delay right away 

Pistol grip pump on my lap at all times (3x)
They can be f**king with other niggas sh*t, but they cant be f**king with mine
Pistol grip pump on my lap at all times (3x)
They can be f**king with other niggas sh*t, but they cant be f**king with mine

Pistol grip pump on my lap at all times, right?
Cause tricks be out for your blindside
Never understood it, but remember i showed you
That in these times you gotta look over your shoulder, strap
Well that ain't nothin' but the intent of gettin high 
And a cop giving you sh*t for just passing you by
If your ever in trouble or on the double best to call your pals
If you got...?
?
Are we getting along? we family, we better be
We got your back, we got your back kid
Just dont be pointing one of them guns, allright man 

Pistol grip pump on my lap at all times (3x)
They can be f**king with other niggas sh*t, but they cant be f**king with mine
Pistol grip pump on my lap at all times (3x)
They can be f**king with other niggas sh*t, but they cant be f**king with mine

Pistol grip pump on my lap at all times (3x)
They can be f**king with other niggas sh*t, but they cant be f**king with mine
Pistol grip pump on my lap at all times (3x)
They can be f**king with other niggas sh*t, but they cant be f**king with mine

that's about it!
            
Hard to play? Try these video lessons and learn fast. | Correct




comments powered by Disqus
↑ Back to top | Tablatures and chords are parodies/interpretations of the original songs. You may use it for private study, scholarship, research or language learning purposes only