» » »

No Shelter Bass tabs (ver.4)

Artists:  A B C D E F G H I J K L M N O P Q R S T U V W X Y Z # 

No Shelter Bass tabs (ver.4)

Rage Against The Machine
Rating:
0/5 (0 votes)

Hard to play? Try these video lessons and learn fast.
                -------------------------------------------------------------------------------
			  NO SHELTER - Rage Against The Machine
-------------------------------------------------------------------------------
Bassist: Tim Commerford

Tuning: Drop D (DADG)

*Note* The main riff is a bit tricky to play, but basically do the slide on the G-string
the Eb to F while keeping a steady beat between the D string and the dropped D string.
use my middle finger on the G string to pluck the Eb (8th fret) and my index finger to 
the D string and my thumb to pluck the dropped D string.  It takes a little
but once you figure it out, you pretty much figure out the song.

Intro, Verse Riff (Riff starts at 0:28)
G|-8/10------8/10-----|
D|-0-0-------0-0------|
A|--------------------|
D|------0-0-------0-0-|x20 (8x for intro, 12x for verse)

Prechorus "...Thin line between entertainment and war" (1:06)
G|-----8888-|
D|-6666-----|
A|----------|
D|----------|

Chorus (same as intro, verse) "There'll be no shelter here" (1:07)
G|-8/10------8/10-----|
D|-0-0-------0-0------|
A|--------------------|
D|------0-0-------0-0-|x8

Bridge, bass solo (1:26)
G|----------------------------------|
D|-------3333----33-----------------|
A|-555533----5555--55335555---------|
D|-------------------------33335555-|

Verse 2 "Hospitals not profit full..." (1:31)
G|-8/10------8/10-----|
D|-0-0-------0-0------|
A|--------------------|
D|------0-0-------0-0-|x12

Prechorus "...Thin line between entertainment and war" (2:08)
G|-----8888-|
D|-6666-----|
A|----------|
D|----------|

Chorus "There'll be no shelter here" (2:10)
G|-8/10------8/10-----|
D|-0-0-------0-0------|
A|--------------------|
D|------0-0-------0-0-|x8

Bridge (16 5s 2:29)     (Same as bass solo) "American eyes, American eyes..."2:35
G|------------------|   G|----------------------------------|
D|------------------|   D|-------3333----33-----------------|
A|-5555555555555555-|   A|-555533----5555--55335555---------|
D|------------------|x2 D|-------------------------33335555-|x10

Outro "Just stare..." 3:22
G|-------------------------|
D|------3-----3------------|
A|-5--3----5----5-3-5------|
D|--------------------3--5-|x6

End on:
G|------|
D|------|
A|------|
D|-5~---|

| /  slide up
| \  slide down
| h  hammer-on
| p  pull-off
| ~  hold note
| +  harmonic
| x  mute note
===============================================================================
And There you have it.  If you have any questions/comments/concerns, comment or send me
            
Hard to play? Try these video lessons and learn fast. | Correct




comments powered by Disqus
↑ Back to top | Tablatures and chords are parodies/interpretations of the original songs. You may use it for private study, scholarship, research or language learning purposes only