» » »

Rage Against The Machine, No Shelter Tabs (ver.5)

Artists:  A B C D E F G H I J K L M N O P Q R S T U V W X Y Z # 

No Shelter Tabs (ver.5)

Rage Against The Machine Tabs
Rating:
0/5 (0 votes)
No Shelter lessons Tabs too difficult? Try these video lessons and learn fast
                ----------------------------------------------------------------------------
                            RAGE AGAINST THE MACHINE - NO SHELTER
----------------------------------------------------------------------------

Tuning: Drop D   (D A D G B e)

+  close wah wah
*  open wah wah
^  gradually close wah wah

Riff #1 (guitar 1)  (chorus)

|-----------------------------------------|
|-----------------------------------------|
|--5--7\---------5--7\--x-x-x-x-x-x-x-x---|
|--5--7\----3----5--7\--x-x-x-x-x-x-x-x---|
|--3--5\----3----3--5\--x-x-x-x-x-x-x-x---|
|-----------3-----------x-x-x-x-x-x-x-x---|

Riff #1 (guitar 2)  (chorus)

|-----------------------------------------|
|-----------6-----------------------------|
|--5--7\----5----5--7\--x-x-x-x-x-x-x-x---|
|--5--7\----3----5--7\--x-x-x-x-x-x-x-x---|
|--3--5\---------3--5\--x-x-x-x-x-x-x-x---|
|-----------------------x-x-x-x-x-x-x-x---|

Riff #2 (both guitars)  (verse)

   +  * +  *  +  * +
|----------------------|
|----------------------|
|----------------------|
|-----3----------3-----|
|--3----5-----3----3---|
|----------------------|

Variation after 12 times

   +  * +    + * +
|----------------------|
|----------------------|
|----------------------|
|----------------------|
|--3--3h5----3-5-3-----|
|----------------------|

Solo

|--16~-----16~-----16~-----16~-----16~-----16~-----16-16-16\-|
|--------------------------------------------------16-16-16\-|
|------------------------------------------------------------|
|------------------------------------------------------------|
|------------------------------------------------------------|
|------------------------------------------------------------|


 now with Wah

   +*^      +* +*^      +* +*^      +*  +* +*  +* +* +*
|--16~------16-16~------16-16~------16--16-16--16-16-16------|
|--16~------16-16~------16-16~------16--16-16--16-16-16------|
|--16~------16-16~------16-16~------16--16-16--16-16-16------| x2
|------------------------------------------------------------|
|------------------------------------------------------------|
|------------------------------------------------------------|


   +*  +*  +*  +*    +*  +*  +*  +*    +*  +*  +*  +*    +*
|--19--18--17--16----19--18--17--16----19--18--17--16----14--15--16--17|
|--19--18--17--16----19--18--17--16----19--18--17--16----14--15--16--17|
|----------------------------------------------------------------------|
|----------------------------------------------------------------------|
|----------------------------------------------------------------------|
|----------------------------------------------------------------------|

Riff #3  (Both guitars)  (ending)

|--------------------------------|
|--------------------------------|
|--------------------------------|
|-------------3------------------|
|------3---------5-3-5---3-5-----|
|--0-----3-0-------------3-5-----|


 /  slide up
 \  slide down
 h  hammer-on
 p  pull-off
 ~  vibrato
 +  harmonic
 x  Mute note
============================================================================
            
Submit corrections

comments powered by Disqus
↑ Back to top | Rage Against The Machine Tabs for No Shelter. Lyrics for acoustic guitar and electric guitar. Tablatures and chords are parodies/interpretations of the original songs. You may use it for private study, scholarship, research or language learning purposes only