» » »

Rage Against The Machine, No Shelter Tabs (ver.3)

Artists:  A B C D E F G H I J K L M N O P Q R S T U V W X Y Z # 

No Shelter Tabs (ver.3)

Rage Against The Machine Tabs
 Rating:
4/5 (4 votes)
No Shelter lessons Tabs too difficult? Try these video lessons and learn fast
                Tuning:DADGAE

Inrto:
E----------------------------|
B----------------------------|
G----------------------------|
D--10/-12/-15-10-12-xxxxx----|
A--10/-12/-15-10-12-xxxxx----|
D--10/-12/-15-10-12-xxxxx----|
Verse W/Wah
E------------------------|
B------------------------|
G------------------------|
D------------------------|          +=Wah open
A--10--------------------|          o=Wah closed
D--10-10-12-10-12-10-12--|
   +  +  o  +  o  +  o
Interlude:
E--~15-~15----------------|             ~=Vibrato
B-------------------------|             ^=Bend
   American eyes.........
   W/Wah
E--~^15-15-~^15-15-~^15-^15-^15-^15-^15-^15-^15--|
B--~^15-15-~^15-15-~^15-^15-^15-^15-^15-^15-^15--|
G------------------------------------------------|
D------------------------------------------------|
A------------------------------------------------|
D------------------------------------------------|

E--17-16-15-14-17-16-15-14-17-16-15-14-13-14-15--|
A--17-16-15-14-17-16-15-14-17-16-15-14-13-14-15--|
G------------------------------------------------|
D------------------------------------------------|
A------------------------------------------------|
D------------------------------------------------|
Outro:
E----------------------|
B----------------------|
G----------------------|
D----------3-----------|
A----3-------5-3-5-----|
D--0---3-0---------5-3-|
End on
E--------|
B--------|
G--------|
D--0-----|
A--0-----|
D--0-----|
Let ring
            
Submit corrections

comments powered by Disqus
↑ Back to top | Rage Against The Machine Tabs for No Shelter. Lyrics for acoustic guitar and electric guitar. Tablatures and chords are parodies/interpretations of the original songs. You may use it for private study, scholarship, research or language learning purposes only