» » »

No Shelter Tabs (ver.2)

Artists:  A B C D E F G H I J K L M N O P Q R S T U V W X Y Z # 

No Shelter Tabs (ver.2)

Rage Against The Machine
Rating:
0/5 (0 votes)

Hard to play? Try these video lessons and learn fast.
                rage against the machine
no shelter
dropped d (ebgdad) high to low

intro, with medium delay
e----------------------x-x-x-x-x-x-x--
b----------------------x-x-x-x-x-x-x-- 
g--5-7--10b---5-7------x-x-x-x-x-x-x--
d--5-7--10b---5-7------x-x-x-x-x-x-x--
a--3-5---8b---3-5------x-x-x-x-x-x-x--
d----------------------x-x-x-x-x-x-x--

verse depress wah on every note
e--------------
b--------------
g--------------  
d--------------
a--3-5-5-3-5-3-
d--------------

bridge, played right before solo, bend every note
e--16-16-16-16-16-16-16-16------------
b-------------------------------------
g-------------------------------------

solo, play this riff twice then play the next one (bend every note)
e-16-16-16-16-16-16-16-16-16-16-16--
b-16-16-16-16-16-16-16-16-16-16-16--
G-----------------------------------
d-----------------------------------
a-----------------------------------
d-----------------------------------

dont bend these notes
e-16-15-14-13-16-15-14-13-16-15-14-13--12b-13b-14--
b-16-15-14-13-16-15-14-13-16-15-14-13----------14--
g--------------------------------------------------
d--------------------------------------------------
a--------------------------------------------------
d--------------------------------------------------
            
Hard to play? Try these video lessons and learn fast. | Correct




comments powered by Disqus
↑ Back to top | Tablatures and chords are parodies/interpretations of the original songs. You may use it for private study, scholarship, research or language learning purposes only