>
 >
New Millenium Homes 5

New Millenium Homes 5 Bass Tabs

Rage Against The Machine - New Millenium Homes 5 chords, tabs, tablatures, lyrics

Guitar lessons | Add/correct | Request | Top 50 tabs Artists:  A B C D E F G H I J K L M N O P Q R S T U V W X Y Z 0-9

New Millenium Homes 5 Bass Tabs – Rage Against The Machine

CD, Sheet music, Poster

Do you like New Millenium Homes 5? Share with your friends now
Bass TabsBass Tabs v2Bass Tabs v3Bass Tabs v4Bass Tabs v5TabsTabs v2
-------------------------------------------------------------------------------
			     NEW MILLENIUM HOMES - Rage Against the Machine
-------------------------------------------------------------------------------


Tuning:Standard

if u listen to the song that comes before 
this on battle of los angeles (voice of the voiceless)
the end of that song starts this bass intro so the 
intro really should just be the chorus but if you 
wanna play along with the song than just play it like this

intro:
0:00
G|---------------|   |---------|
D|---------------|x3 |---------|
A|-----5h7---5-0-|   |-----5h7-|
E|-0-0-----0-----|   |-0-0-----|

chorus:
0:08
G|---------------|   |-----------------|
D|---------------|x7 |---5---7---------|
A|---5-0-----5h7-|   |-----7-----------|
E|-0-----0-0-----|   |-0-------0-3h5-0-|

verse:
0:31
G|--------------------|
D|-5---------5--------|x8
A|-7---------7--------|
E|----0-00-----0-0-00-|

pre-chorus:
1:12
G|-------------|
D|-------------|x8
A|-----777-----|
E|-000-----000-|

chorus:
1:33
G|---------------|   |---------------|
D|---------------|x7 |---5---7-------|
A|---5-0-----5h7-|   |-----7---------|
E|-0-----0-0-----|   |-0-------0-3h5-|

verse:
1:54
G|--------------------|   |----------------------------|
D|-5---------5--------|x4 |---------5---------5--------|x4
A|-7---------7--------|   |-0h7-0h5-7---------7--------|
E|----0-00-----0-0-00-|   |------------0-00-----0-0-00-|

pre-chorus:
2:34
G|-------------|
D|-------------|x8
A|-----777-----|
E|-000-----000-|

solo:
2:55
G|---------------|   |---------------|   |-----------999-|
D|---------------|x4 |---7-5---------|x3 |---5---7755----|
A|---5-0-----5h7-|   |-----------5h7-|   |-----7---------|
E|-0-----0-0-----|   |-0-----0-0-----|   |-0-------------|

chorus:
3:16
G|---------------|   |-----------------|
D|---------------|x7 |---5---7---------|
A|---5-0-----5h7-|   |-----7-----------|
E|-0-----0-0-----|   |-0-------0-3h5-0-|


| /  slide up
| \  slide down
| h  hammer-on
| p  pull-off
| ~  vibrato
| +  harmonic
| x  Mute note
===============================================================================





Comments


Popular Rage Against The Machine tabs & chords
Clear The Lane 4 Bass Tabs
Im Housin 4 Bass Tabs
Street Fighting Man 2 Bass Tabs
Year Of The Boomerang Bass Tabs
Settle For Nothing Drum Tabs
Guerilla Radio 5 Tabs
New Millennium Homes Tabs
Testify - Ratm Tabs
The Ghost Of Tom Joad 2 Tabs
Voice Of The Voiceless  2 Tabs


Song lyrics



↑ Back to top | Tablatures and chords are parodies/interpretations of the original songs. You may use it for private study, scholarship, research or language learning purposes only
© 2014 AZChords.com Contact us | Privacy policy | DMCA | Add/correct tabs | Request tabs | Top 50 tabs