>
 >
Mix

Mix Bass Tabs

Rage Against The Machine - Mix chords, tabs, tablatures, lyrics

Guitar lessons | Add/correct | Request | Top 50 tabs Artists:  A B C D E F G H I J K L M N O P Q R S T U V W X Y Z 0-9

Mix Bass Tabs – Rage Against The Machine

CD, Sheet music, Poster

Do you like Mix? Share with your friends now
Bass Tabs
this just a hole lot of ratm songs 

BOMBTRACK

G-----------------------------------
D----2-0---0----------2-0---0-2-5~--
A--------2---2-0----------2---------
E--0-------------3--0---------------

G-----------------------------------
D----2-0---0----------2-0---0-------
A--------2---2-0----------2---2-----
E--0-------------3--0-----------3-2-

G-----------------------------------
D----2-0---0----------2-0---0-2-5~--
A--------2---2-0----------2---------
E--0-------------3--0---------------

G-----------------------------------
D----2-0---0------------------------
A--------2---2-0--------------------
E--0-------------3--0-0-0-0-0-0-0-0-

G-----------------------------------------
D-----4---------4-2------4----------------
A--------------------------------4--3--2--
E-0-2---0-2-0-2------0-2---0-2-0----------

BORN OF A BROKEN MAN

G---------------------------------------------------
D---------------------------------------------------
A---------------------------------------------------
D-0---6/5-3-0--7-0-0--3-0--x-x-x-x-3-0--7-0-0--3-0--

BULLET IN YOUR HEAD

G---------------------7--
D---------------------6--
A--7---7--r--7-7-7-------
E------------------0-----
CALM LIKE A BOMB

G-----0-2-------------0---0-------
D-2-4-------4-2-0-2-4-------2-0---
A-------------------------------4-
E---------------------------------

G---------------------------------
D-----2-4---0-------0-2---2-------
A-0-4---------4-2-4---------4-2-1-
E---------------------------------

G---------------------------------
D-----------0-----2---0---4-0-2---
A-------2-----2-4---4-------------
E---2-----------------------------

G-----0-2-------------0---0-------
D-2-4-------4-2-0-2-4-------2-0---
A-------------------------------4-
E---------------------------------

G-----
D-----
A--0--
E-----

FREEDOM

G-------------------------------------------------
D-------------------------------------------------
A-----5-------3-------5-5-----5-------3-------5---
D-------0-3-5---5-3-5-----0-3---0-3-5---5-3-5-----

GUERILLA RADIO

G-------------------------------
D-------------------------------
A------------------0-2----------
E--0--2-2-0-2-0-2---------------

G-2---------1-------------------
D-------------------------------
A-------------------------------
E----2--0------2------0-2-------

HOW I COULD JUST KILL A MAN

G--------------------
D--------------------
A------------3-------
D-3/10-0-3-5---00000-

KILLING IN THE NAME

G-------------
D-------------
A-------6-6-6-
E-0-0-0-------

G-------------------
D-------3-4---------
A---3-5-----5-------
E-0-----------0-3-2-

G-------4-------3-------2-
D-------------------------
A-3-5-5---3-5-5---3-5-5---
E-------------------------

G------
D------
A-55-5-
E------

MAGGIES FARM

---------------------------- 
---------0--------0---0---2- 
-7/--2-2---2-2-2----2---2--- 
----------------------------

---------------------------- 
-----0------------0--------- 
-2-2---2-2-2--0-2---2-0----- 
------------------------2-0-

SETTLE FOR NOTHING

G---7-----7--------7-----7--------7-----7--------7-----7------
D------0-----9--------0-----8--------0-----7--------0-----8---
A-------------------------------------------------------------
E-------------------------------------------------------------

SLEEP NOW IN THE FIRE

G-----------------------------------------------------------
D-----------------------------------------------------------
A-----------3-------------3-------------3-----5-5-3-5-3-----
E-3-5-5-3-5---5-3-5-5-3-5---5-3-5-5-3-5---5-3-----------5-3-

TAKE THE POWER BACK

G----------------------------
D------------3--------3------
A--------3-5---5-3-5---------
D----0-0-----------------0-0-

G-----------------------5-7--
D--------------3---5-7-------
A---------3-5---5------------
D----0-0---------------------

G----------------------------
D----------------------------
A--------3-5---5-4-3---------
D----0-0---------------------

G----------------------------
D--------------5-5-3-5-3-----
A---------3-5----------------
D----0-0---------------------

TESTIFY

G-------------------------------------------------------
D-----------------------------------------------------6-
A-------------3---5-3-------------------0-3---5-3-------
D-0---3-5-0-----0-------0-5-3-0---3-5-0-----0-------0---

TOWNSHIP REBELION

G---------------------------------------------------------------------------
D---------------------------------------------------------------------------
A---3-5--------3-5--------------3-5--------3-5--------5-------3-5--------3-5
D:--------0--0-------0--0--3--5-------0--0-------0--0-----3---------0--0----

G-----------------------------------------------
D---------------------------------7b--5---------
A--------------3-5--------3-5------------7--5---
D--0--0--3--5-------0--0-------0----------------

VOICE OF THE VOICELESS

G------------------
D----5-------------
A--3---5-3-5-3-5-3-
E------------------

G-------------
D-------------
A-3-5-3-------
E-------3-5-3-

G--------------
D--------------
A--------------
E--3-5-0h2-0h3-

i think there all correct





Comments


Popular Rage Against The Machine tabs & chords
Born Of A Broken Man 1 Bass Tabs
Wind Below Bass Tabs
Killing In The Name 1 Drum Tabs
Bombtrack 4 Tabs
Born Of A Broken Man 4 Tabs
Bullet In The Head 1 Tabs
Freedom 2 Tabs
Freedom 3 Tabs
Killing In The Name 1 Tabs
War Within A Breath Tabs


Song lyrics



↑ Back to top | Tablatures and chords are parodies/interpretations of the original songs. You may use it for private study, scholarship, research or language learning purposes only
© 2014 AZChords.com Contact us | Privacy policy | DMCA | Add/correct tabs | Request tabs | Top 50 tabs