>
 >
Mindset's A Threat

Mindset's A Threat Guitar Tabs

Rage Against The Machine - Mindset's A Threat chords, tabs, tablatures, lyrics

Guitar lessons | Add/correct | Request | Top 50 tabs Artists:  A B C D E F G H I J K L M N O P Q R S T U V W X Y Z 0-9

Mindset's A Threat Guitar Tabs – Rage Against The Machine

CD, Sheet music, Poster

Do you like Mindset's A Threat? Share with your friends now
Tabs
MINDSETS A THREAT
As Recorded by RATM on the original demo tape
Standard Tuning

INTRO
   PM.............................................................|
|-------------------------------------------------------------------|
|-------------------------------------------------------------------|
|-------------------------------------------------------------------|
|-------------------------------------------------------------------|
|--7-7-7-7-7-7-7-7-7-7-7-7-7-7-7-7-7-7-7-7-7-7-7-7-7-7-7-7-7-7-7-7--|
|--5-5-5-5-5-5-5-5-5-5-5-5-5-5-5-5-5-5-5-5-5-5-5-5-5-5-5-5-5-5-5-5--|

Gradually lift your palm of the strings for increased distortion.

CHORUS/THEME RIFF
|--------------------------------------------------------------|
|--------------------------------------------------------------|
|--------------------------------------------------------------|
|----------------------------10--------------------------------|
|--0----3----5-6--7----10-12----12--*-------------------4-5-4--|
|----------------------------------10\------------/1p0--2-3-2--|

* = Gradually slide from the tenth fret to the first and then pull-off to zero.

VERSE
|-------------|
|-------------|
|-------------|
|--------2-2--|
|--4-5-4-0-0--|
|--2-3-2------|

Pre-Chorus
|-----|
|-----|
|--\--|
|--\--|
|--\--|
|--\--|

\ = Slide down neck with your palm.

BRIDGE
|-------------------------------|
|-------------------------------|
|-------------------------------|
|--7-7-7-7--7-7-7-7-7--7-7-7-7--|
|--7-7-7-7--7-7-7-7-7--7-7-7-7--|
|--5-5-5-5--5-5-5-5-5--5-5-5-5--|

PRE-SOLO
|-----------------------------------------------------------------------------------|
|-----------------------------------------------------------------------------------|
|-----------------------------------------------------------------------------------|
|-----------------------------------------------------------------------------------|
|-12-0--0--10--0--0--8--0--0--7--0--0--5--0--3--0--2--0--0--0--5--0--3--2--0--2b(3)-|
|-----------------------------------------------------------------------------------|

GUITAR SOLO
Coming soon...

OUTRO
|-----------------------------------------------------------|
|-----------------------------------------------------------|
|-----------------------------------------------------------|
|-------------------------10--------(7)------------7-7-7-7--|
|--0----3----5-6-7--10-12----7-7----(7)------------7-7-7-7--|
|----------------------------5-5----(5)------------5-5-5-5--|
Volume swell the bracket notes.





Comments


Popular Rage Against The Machine tabs & chords
Bombtrack 4 Bass Tabs
Bullet In The Head 4 Bass Tabs
Degeneration X 1 Bass Tabs
Guerrila Radio 3 Bass Tabs
Mindsets A Threat Bass Tabs
New Millenium Homes 3 Bass Tabs
War Within A Breath 2 Bass Tabs
Testify 2 Tabs
Vietnow Tabs
All Rage Lyrics Ever Ukulele


Song lyrics



↑ Back to top | Tablatures and chords are parodies/interpretations of the original songs. You may use it for private study, scholarship, research or language learning purposes only
© 2014 AZChords.com Contact us | Privacy policy | DMCA | Add/correct tabs | Request tabs | Top 50 tabs