» » »

Maria Bass tabs (ver.2)

Artists:  A B C D E F G H I J K L M N O P Q R S T U V W X Y Z # 

Maria Bass tabs (ver.2)

Rage Against The Machine
Rating:
0/5 (0 votes)

Tabs too difficult? Try these video lessons and learn fast.
                -------------------------------------------------------------------------------
			     MARIA - Rage Against the Machine
-------------------------------------------------------------------------------


Tuning:Standard

verse: 
0:05
G|----------------------7-7-7-9-9-9-9-|    |----------|
D|----------------7-7-7---------------|x11 |----------|
A|-7-7-7-10-10-10---------------------|    |----------|
E|------------------------------------|    |----------|

pre-chorus: play during guitar chords too
0:38
G|---------------------------------|   |---------|
D|-------------------5-----5-------|x8 |---------|
A|-7-5---7-x-x-x-x-x---7-5-----5-7-|   |-7-5---7-|
E|-----7---------------------7-----|   |-----7---|

chorus: 
1:00
G|----------------------------------------------------|
D|----------------------------------------------------|x2
A|-7-5-7----5---5-------------------------------------|
E|--------0---7----5-3-5--0--3-0-3--0-5-3-5--0-7-5-7--|
                                                       
verse:                                                   _
1:14                                                      | 
G|----------------------7-7-7-9-9-9-9-|    |----------|   |
D|----------------7-7-7---------------|x11 |----------|   |x3
A|-7-7-7-10-10-10---------------------|    |----------|   |
E|------------------------------------|    |----------|   |
                                                         _|
pre-chorus: 
1:47                                    
G|---------------------------------|   |---------|
D|-------------------5-----5-------|x8 |---------|
A|-7-5---7-x-x-x-x-x---7-5-----5-7-|   |-7-5---7-|
E|-----7---------------------7-----|   |-----7---|

chorus: 
2:09
G|----------------------------------------------------|
D|----------------------------------------------------|x4
A|-7-5-7----5---5-------------------------------------|
E|--------0---7----5-3-5--0--3-0-3--0-5-3-5--0-7-5-7--|

break: just wait a few measures
2:32
G|------------|
D|------------|x4
A|------------|
E|------------|
                                                         
guitar solo:                                             _ 
2:54                                                      |
G|---------------------------------------------------|    |
D|---------------------------------------------------|    |
A|-7-5-7----5---5------------------------------------|    |
E|--------0---7----5-3-5--0--3-0-3--0-5-3-5--0-7-5-7-|    |
                                                          |x2
G|----------------------------------------------------|   |
D|-----5----------------------------------------------|   |
A|-7-5----7-5---5-------------------------------------|   |
E|------------7---7-5-3-5--0--3-0-3--0-5-3-5--0-7-5-7-|   |
                                                         _|
chorus: 
3:17
G|-----------------------------------------------------|
D|-----------------------------------------------------|x4
A|-7-5-7----5---5--------------------------------------|
E|--------0---7----5-3-5-0--3-0-3--0-5-3-5--0-7-5-7-0--|

| /  slide up
| \  slide down
| h  hammer-on
| p  pull-off
| ~  vibrato
| +  harmonic
| x  Mute note
===============================================================================
            
Tabs too difficult? Try these video lessons and learn fast.


comments powered by Disqus
↑ Back to top | Tablatures and chords are parodies/interpretations of the original songs. You may use it for private study, scholarship, research or language learning purposes only