» » »

Rage Against The Machine, Maria Tabs (ver.1)

Artists:  A B C D E F G H I J K L M N O P Q R S T U V W X Y Z # 

Maria Tabs (ver.1)

Rage Against The Machine Tabs
Rating:
0/5 (0 votes)
Maria lessons Tabs too difficult? Try these video lessons and learn fast
                Maria off the album The Battle Of Los Angelas by Rage Against The Machine


Standard Tuning (EADGBE) 

Intro (With Delay)

E------------------------------
B---21~-----21~----------------
G------------------------------
D------------------------------
A------------------------------
E------------------------------

Verses (Clean)

E--------------------------------------
B--------------------------------------
G--------------------------------------
D--------------------------------------
A---0-0-0-3-3-3-5-5-5------------------
E----------------------3-3-3-3-4-------

Chorus

E------------------------------------------------
B------------------------------------------------
G------------------------------------------------
D------------------------------------------------
A--7-5-7-0-5-2-5-2-0-----------------------------
E--------------------0-3-0-3-0-5-3-5-0-7-5-7-----

Thats What I know.
            
Submit corrections

comments powered by Disqus
↑ Back to top | Rage Against The Machine Tabs for Maria. Lyrics for acoustic guitar and electric guitar. Tablatures and chords are parodies/interpretations of the original songs. You may use it for private study, scholarship, research or language learning purposes only