» » »

Rage Against The Machine, Maggie's Farm Tabs (ver.5)

Artists:  A B C D E F G H I J K L M N O P Q R S T U V W X Y Z # 

Maggie's Farm Tabs (ver.5)

Rage Against The Machine Tabs
 Rating:
4/5 (4 votes)
Maggie's Farm lessons Tabs too difficult? Try these video lessons and learn fast
1
                (4)
<<< Maggies Farm >>>



Symbols:
>  ~ = Let Ring
>  / = Slide Up
>  \ = Slide Down
> pm = Palm Mute betweew lines (|--|) and where single lines are (|)
>  : = Mute Note(s)    
>  h = Hammer-on
>  p = Pull off  
> b/ = Bend up
> w/ = Whammy bar up
> w\ = Whammy bar down
> wr = Release Whammy bar (to normal postiton)
>(#) = Bend to or wammy to make it sound like the bracketed not 

Yes, yes i know. This tab is for drop C tuning even though the rest say Drop B. Well THIS tab 
is for drop c and it sounds correct, so try it before you b**ch about it.

Intro
D----15----15----15----15----13----13----13----13----------------|
A-------15----15----15----15----15----15----15----15-------------|
F----------------------------------------------------------------|
C----------------------------------------------------------------|
G----------------------------------------------------------------|
C----------------------------------------------------------------|

D----15----15----15----15----13----13----13~---------------------|
A-------15----15----15----15----15----15-------------------------|  
F----------------------------------------------------------------|
C--------------------------------------------------12\-----------| 
G--------------------------------------------------12\-----------|
C--------------------------------------------------12\-----------|


Riff A - Heavy x4
D----------------------------------------------------------------|
A----------------------------------------------------------------|
F----------------------------------------------------------------|
C----------------------------------------------------3-----------|
G------------------------------------------------3-5---5-3-------|
C--0:--0--3p0-0-0:--0-3p0-0-5~--0:--0--3p0-0-0:------------5-3---|
pm                  |


Riff B - Soft with PM x8 [I ain't gonna work on, Maggies farm no more]
D----------------------------------------------------------------|
A----------------------------------------------------------------|
F----------------------------------------------------------------|
C----------------------------------------------------------------|
G----------------------------------------------------------------|
C--0:--0--3p0-0-0:--0-3p0-0-5~--0:--0--3p0-0-0:------------------|


Riff C - Soft x2 (Played behind Riff B on 5th and 7th times)
D----------------------------------------------------------------|
A---------5~-----------------------------------------------------|
F---------5~---------------------------7-------------------------|
C---------3~---------------------------7-------------------------|
G--------------------------------------5-------------------------|
C--0---0------------------------0---0----------------------------|
pm |---|                        |---|


Riff D - Harder x4 [I ain't gonna work for, Maggies brother no more]
D-----------------------------------|
A-----------------------------------|
F-----------------------------------|
C-----------------------------------|
G---------0-0-----0-0-----0-0-0-0---|
C--0:--0--0-0--0--0-0--0--0-0-0-0---|
          |-|     |-|     |-----|


Riff E - Hard x2 [Well he hands you a nickel]
D----------------------------------------------------------------|
A----------------------------------------------------------------|
F----------------------------------------------------------------|
C----------------------------------------------------------------|
G----------------------------------------------------------------|
C---0:--0--3p0-0-0:--0-3p0-0-5~----0:--0--3p0-0-0:--0-3p0-0-5~---|
pm                   |                              |


Riff F - Hard [Then he fines you, every time you slam the door]
D-------------------------------------|
A-------------------------------------|
F--5-5-5-5-5-5-5-5--------------------|
C--5-5-5-5-5-5-5-5--------------------|
G--3-3-3-3-3-3-3-3---5-5-5-5-5-5-5-5--|
C--------------------5-5-5-5-5-5-5-5--|


Riff D - Hard x2
D-----------------------------------|
A-----------------------------------|
F-----------------------------------|
C-----------------------------------|
G---------0-0-----0-0-----0-0-0-0---|
C--0:--0--0-0--0--0-0--0--0-0-0-0---|
          |-|     |-|     |-----|


Riff F - Hard [I ain't gonna work for, na]
D----------------------------------------|
A----------------------------------------|
F--5-5-5-5-5-5-5-5-----------------------|
C--5-5-5-5-5-5-5-5-----------------------|
G--3-3-3-3-3-3-3-3---5-5-5-5-5-5-5-5-----|
C--------------------5-5-5-5-5-5-5-5--0~-|


Riff A - Heavy x2
D-------------------------------------------------------------------|
A-------------------------------------------------------------------|
F-------------------------------------------------------------------|
C--12\---------------------------------------------------3----------|
G--12\-----------------------------------------------3-5---5-3------|
C--12\-0:--0--3p0-0-0:--0-3p0-0-5~--0:--0--3p0-0-0:------------5-3--|
   ^^            pm |
First time only


Fill A x2
D------------|
A------------|
F--14w\(12)--|
C------------|
G------------|
C------------|


Riff B - Soft with PM x8 [I ain't gonna work for, Maggies Pa no more]
D----------------------------------------------------------------|
A----------------------------------------------------------------|
F----------------------------------------------------------------|
C----------------------------------------------------------------|
G----------------------------------------------------------------|
C--0:--0--3p0-0-0:--0-3p0-0-5~--0:--0--3p0-0-0:------------------|


Riff C - Soft x2 (Played behind Riff B on 5th and 7th times) [The national guard...]
D----------------------------------------------------------------|
A---------5~-----------------------------------------------------|
F---------5~---------------------------7-------------------------|
C---------3~---------------------------7-------------------------|
G--------------------------------------5-------------------------|
C--0---0------------------------0---0----------------------------|
pm |---|                        |---|


Riff D - Hard x4 [I ain't gonna work for, Maggies ma no more]
D-----------------------------------|
A-----------------------------------|
F-----------------------------------|
C-----------------------------------|
G---------0-0-----0-0-----0-0-0-0---|
C--0:--0--0-0--0--0-0--0--0-0-0-0---|
          |-|     |-|     |-----|


Riff E - Hard x2 [Well she talks to all the servants...]
D----------------------------------------------------------------|
A----------------------------------------------------------------|
F----------------------------------------------------------------|
C----------------------------------------------------------------|
G----------------------------------------------------------------|
C---0:--0--3p0-0-0:--0-3p0-0-5~----0:--0--3p0-0-0:--0-3p0-0-5~---|
pm                   |                              |


Riff F - Hard [She's 68, but she says she's 24]
D-------------------------------------|
A-------------------------------------|
F--5-5-5-5-5-5-5-5--------------------|
C--5-5-5-5-5-5-5-5--------------------|
G--3-3-3-3-3-3-3-3---5-5-5-5-5-5-5-5--|
C--------------------5-5-5-5-5-5-5-5--|


Riff D - Hard x2
D-----------------------------------|
A-----------------------------------|
F-----------------------------------|
C-----------------------------------|
G---------0-0-----0-0-----0-0-0-0---|
C--0:--0--0-0--0--0-0--0--0-0-0-0---|
          |-|     |-|     |-----|


Riff F - Hard [I ain't gonna work for, na]
D----------------------------------------|
A----------------------------------------|
F--5-5-5-5-5-5-5-5-----------------------|
C--5-5-5-5-5-5-5-5-----------------------|
G--3-3-3-3-3-3-3-3---5-5-5-5-5-5-5-5-----|
C--------------------5-5-5-5-5-5-5-5--0~-|


>>> Solo

Solo Riff A - Continuous wammy bend down x8
D--------------|
A--15~---------|
F-------15~----|
C--------------|
G--------------|
C--------------|

Solo Riff B - In background of entire solo
D----------------------------------------------------------------|
A--15-15-15-15-15-15-15-15-15-15-15-15-15-15-15-15-15-15-15-etc--|
F----------------------------------------------------------------|
C----------------------------------------------------------------|
G----------------------------------------------------------------|
C----------------------------------------------------------------|

Solo Riff C - Played with Solo Riff A on 5th time x2
D----------------------------------------------------|
A---13-15-13:---13-15-13:---13-15-13-15-13-15-13:----|
F----------------------------------------------------|
C----------------------------------------------------|
G----------------------------------------------------|
C----------------------------------------------------|

>>> End Solo


Riff G x 4 [I ain't gonna work on, Maggies farm no more]
D----15----15----15----15----13----13----13----13----------------|
A-------15----15----15----15----15----15----15----15-------------|
F----------------------------------------------------------------|
C----------------------------------------------------------------|
G----------------------------------------------------------------|
C----------------------------------------------------------------|

D----15----15----15----15----13----13----13----13----------------|
A-------15----15----15----15----15----15----15----15-------------|
F----------------------------------------------------------------|
C----------------------------------------------------------------|
G----------------------------------------------------------------|
C----------------------------------------------------------------|


Riff H [Well I try my best, to be just like i am]
D----15----15----15-------------13----13----13-------------------|
A-------15----15----15\------------15----15----15\---------------|
F----------------------------------------------------------------|
C----------------------------------------------------------------|
G----------------------------5-----------------------------5-----|
C-------------------------0--5--------------------------0--5-----|
pm                        |                             |


Riff F - Hard 
D-------------------------------------|
A-------------------------------------|
F--5-5-5-5-5-5-5-5--------------------|
C--5-5-5-5-5-5-5-5--------------------|
G--3-3-3-3-3-3-3-3---5-5-5-5-5-5-5-5--|
C--------------------5-5-5-5-5-5-5-5--|


Riff D - Hard x2
D-----------------------------------|
A-----------------------------------|
F-----------------------------------|
C-----------------------------------|
G---------0-0-----0-0-----0-0-0-0---|
C--0:--0--0-0--0--0-0--0--0-0-0-0---|
          |-|     |-|     |-----|


Riff F - Hard [I ain't gonna work on, na]
D----------------------------------------|
A----------------------------------------|
F--5-5-5-5-5-5-5-5-----------------------|
C--5-5-5-5-5-5-5-5-----------------------|
G--3-3-3-3-3-3-3-3---5-5-5-5-5-5-5-5-----|
C--------------------5-5-5-5-5-5-5-5--0~-|

>>> Ending

Riff A - Slower x5
D----------------------------------------------------------------|
A----------------------------------------------------------------|
F----------------------------------------------------------------|
C----------------------------------------------------3-----------|
G------------------------------------------------3-5---5-3-------|
C--0:--0--3p0-0-0:--0-3p0-0-5~--0:--0--3p0-0-0:------------5-3---|
pm                  |


Riff I - Slow x6
D----------------------------------------------------------------|
A----------------------------------------------------------------|
F----------------------------------------------------------------|
C----------------------------------------------------------------|
G-------------------------------------------------3~-------------|
C--0:--0--3p0-0-0:--0-3p0-0-5~--0:--0--3p0-0-0:--------5~--------|
pm                  |

D----------------------------------------------------------------|
A----------------------------------------------------------------|
F----------------------------------------------------------------|
C----------------------------------------------------3-----------|
G------------------------------------------------3-5---5-3-------|
C--0:--0--3p0-0-0:--0-3p0-0-5~--0:--0--3p0-0-0:------------5-3---|
pm                  |


[The fills are played behind the ending]

Fill A
D------------|
A------------|
F--14w\(12)--|
C------------|
G------------|
C------------|

Fill B
D-----------------------------|
A--15~-13--15~--13-13-13-13/--|
F-----------------------------|
C-----------------------------|
G-----------------------------|
C-----------------------------|
            
Submit corrections

comments powered by Disqus
↑ Back to top | Rage Against The Machine Tabs for Maggie's Farm. Lyrics for acoustic guitar and electric guitar. 1 Tablatures and chords are parodies/interpretations of the original songs. You may use it for private study, scholarship, research or language learning purposes only