>
 >
Killling In The Name

Killling In The Name Bass Tabs

Rage Against The Machine - Killling In The Name chords, tabs, tablatures, lyrics

Guitar lessons | Add/correct | Request | Top 50 tabs Artists:  A B C D E F G H I J K L M N O P Q R S T U V W X Y Z 0-9

Killling In The Name Bass Tabs – Rage Against The Machine

CD, Sheet music, Poster

Do you like Killling In The Name? Share with your friends now
Bass Tabs
Bassist: Tim Commerford

Trust me, this tab is 100% RIGHT!!!

/=Slide Up >= Accent (Play note louder) h=Hammeron Tr~~~~~~=Trill

Intro 1:
       >       >       >       >
G|-----7-------7-------7-------7-------|
D|-----7-------7-------7-------7-------|
A|-----5-------5-------5-------5-------|
D|-------------------------------------|

Intro 2: 
G|----------------------------------------------------------------|
D|----------------------------------------------------------------| X3
A|--------6-6-6-------6-6-6-------6-6-6-------6-6-6-------6-6-6---|
D|-0-0-0--------0-0-0-------0-0-0-------0-0-0-------0-0-0---------|

G|-----------|
D|-----------|
A|-------6---|
D|-0-0-0-----|

Verse:
G|---------------------------------|
D|------------3h4------------------| X12
A|----3h5----------5---------------|
D|-0------X-X---------0----2h3-2---|

Chorus:
G|-------------------------------------------------------------------------|
D|-----------------9----------------8-------------------7------------------| 
A|------3h5--------------3h5-----------------3h5---------------------------|
D|--0--------X-X-----0--------X-X--------0--------X-X-------0---2h3-2h3-2--|

G|---------------------------------------------------------------------------|
D|-----------------9----------------8-------------------7--------------------| 
A|------3h5--------------3h5-----------------3h5------------3-3-3-3-3-3-3-3--|
D|--0--------X-X-----0--------X-X--------0--------X-X------------------------|

Interlude:
G|-------------|
D|-------------| X4
A|--5-5---5----|
D|-------------|

G|-------------|
D|-------------| X8
A|--5-5--X-5---|
D|-------------|

G|----------------------------|
D|----------------------------|
A|--5-5-5-5-5-5-5-5-5-5-5-5---|
D|----------------------------|

Bridge:
G|-------------------------------|
D|-------------------------------| X8
A|--5-5---X-5---5---X-------3----|
D|--------------------3--5-------|

Verse:
G|---------------------------------|
D|------------3h4------------------| X3
A|----3h5----------5---------------|
D|-0------X-X---------0----2h3-2---|

Variation:  (On the 4th time)           Tr~~~~~~~~
G|--------------------------------------(10-11)-10-|
D|------------3h4/------------10-11-12-------------|
A|----3h5-----------10-11-12-----------------------|
D|-0------X-X--------------------------------------|

G|---------------------------------|
D|------------3h4------------------| X4
A|----3h5----------5---------------|
D|-0------X-X---------0----2h3-2---|

Chorus:
G|-------------------------------------------------------------------------|
D|-----------------9----------------8-------------------7------------------| 
A|------3h5--------------3h5-----------------3h5---------------------------|
D|--0--------X-X-----0--------X-X--------0--------X-X-------0---2h3-2h3-2--|

G|---------------------------------------------------------------------------|
D|-----------------9----------------8-------------------7--------------------| 
A|------3h5--------------3h5-----------------3h5------------3-3-3-3-3-3-3-3--|
D|--0--------X-X-----0--------X-X--------0--------X-X------------------------|

Interlude:
G|-------------|
D|-------------| X4
A|--5-5---5----|
D|-------------|

G|-------------|
D|-------------| X8
A|--5-5--X-5---|
D|-------------|

G|----------------------------|
D|----------------------------|
A|--5-5-5-5-5-5-5-5-5-5-5-5---|
D|----------------------------|

Bridge:
G|-------------------------------|
D|-------------------------------| X8
A|--5-5---X-5---5---X-------3----|
D|--------------------3--5-------|

Play this in Guitar Solo:
G|-------------------------------|
D|-------------------------------| X3
A|--5-5---X-5---5---X-------3----|
D|--------------------3--5-------|

G|-------------------------------|
D|---------------------2--3--5---|
A|--5-5---X-5---5---X------------|
D|-------------------------------|

G|-------------------------------|
D|-------------------------------|X4
A|--5-5---X-5---5---X-------3----|
D|--------------------3--5-------|

Bridge 2: (The big build up)
G|----------------------------------------------------|
D|----------------------------------------------------| X4
A|--5-5-5-5-5-5-5-5-5-5-5-5-5-5-5-5-5-5-5-5-5-5-5-5---|
D|----------------------------------------------------|

G|-------------------------------|
D|-------------------------------| X3
A|--5-5---X-5---5---X-------3----|
D|--------------------3--5-------|

G|-------------------------------|
D|---------------------2--3--5---|
A|--5-5---X-5---5---X------------|
D|-------------------------------|

G|-------------------------------|
D|-------------------------------| X8
A|--5-5---X-5---5---X-------3----|
D|--------------------3--5-------|

G|----------------------------------------------------|
D|----------------------------------------------------|
A|--5-5-5-5-5-5-5-5-5-5-5-5-5-5-5-5-5-5-5-5-5-5-5-5---|
D|----------------------------------------------------|

G|-------------------|
D|-------------------|
A|--------6-6-6-(6)--|
D|-0-0-0-------------|

END





Comments


Popular Rage Against The Machine tabs & chords
Testify 2 Bass Tabs
Ghost Of Tome Jode Chords
Testify Chords
Sleep Now In The Fire Drum Tabs
Born As Ghosts  1 Tabs
Bullet In The Head 3 Tabs
Clamp Down Tabs
How I Could Just Kill A Man 1 Tabs
Wake Up Nearly Exact Tabs
Walk Away Tabs


Song lyrics



↑ Back to top | Tablatures and chords are parodies/interpretations of the original songs. You may use it for private study, scholarship, research or language learning purposes only
© 2014 AZChords.com Contact us | Privacy policy | DMCA | Add/correct tabs | Request tabs | Top 50 tabs