>
 >
Killing In The Name Real Tab

Killing In The Name Real Tab Guitar Tabs

Rage Against The Machine - Killing In The Name Real Tab chords, tabs, tablatures, lyrics

Guitar lessons | Add/correct | Request | Top 50 tabs Artists:  A B C D E F G H I J K L M N O P Q R S T U V W X Y Z 0-9

Killing In The Name Real Tab Guitar Tabs – Rage Against The Machine

CD, Sheet music, Poster

Do you like Killing In The Name Real Tab? Share with your friends now
Tabs


Drop D
A) Intro
     D5          N.C.
        (4 times)  (7 beats)  (9 beats) 
e-|--------------|-----------|---------|
B-|.--3---------.|-----r-----|---------|
G-|---2----------|-----e-----|----8b---|
D-|.--0---------.|-----s-----|---------|
A-|---0----------|-----t-----|---------|
D-|---0----------|-----------|---------|
     			      ~~~~~~~~~ 


            (3 times)
e-|---------------------|-----------------------|
B-|.-------------------.|-----------------------|
G-|--------------11-12--|--------------12b(12)--|
D-|.-------11-12-------.|--------11-12----------|
A-|---------------------|-----------------------|
D-|--0-0-0--------------|--0-0-0----------------|
   |pm---| 	         |pm---|




                 (3 times)
e-|-----------------------|--------------------------|
B-|.---------------------.|--------------------------|
G-|--------------11-12----|--------------12b(12)-----|
D-|.-------11-12---------.|--------11-12-------------|
A-|-----------------------|--------------------------|
D-|--0-0-0----------------|--0-0-0-------------------|
    |pm---|                 |pm---|




     (2 times)
e-|---------------|----------------------------|
B-|.-------------.|----------------------------|
G-|---------------|--------8-8-8--------20-20--|
D-|.-------------.|----------------------------|
A-|--------6-6-6--|--------6-6-6--------18-18--|
D-|--0-0-0--------|--0-0-0--------0-0-0--------|
     --3-- --3--     --3-- --3--  --3-- --3--




   N.C.              D5 E5 F5 E5
                      (4 times)
e-|-------------------------------|
B-|.-----------------------------.|
G-|-------------------------------|
D-|.-----------3h4------------2--.|
A-|----3h5-x-x-----5-0--2h-3--2---|
D-|--0-----x-x-------0--2h-3--2---|


B) Verse
    Some of those that work...

		    (4 times)
   N.C.             D5 E5 F5 E5
   
e-|-----------------------------|
B-|.---------------------------.|  
G-|-----------------------------|
D-|.-----------3h4-------------.|
A-|----3h5-x-x-----5-0-2h-3--2--|
D-|--0-----x-x-------0-2h-3--2--|



C) Pre-Chorus
   Uh...			

   N.C.                         

e-|----------------------------|
B-|----------------------------|
G-|----------------------------|
D-|------------9------------8--|
A-|----3h5-x-x------3h5-x-x----|
D-|--0------------0------------|



	       Killing in the name of
                       E5 F5  E5 F5 E5
e-|------------------------------------|
B-|------------------------------------|
G-|------------------------------------|
D-|------------7-----------------------|
A-|----3h5-x-x---------2h-3--2h--3--2--|
D-|--0-------------0---2h-3--2h--3--2--|



                                

   N.C.                         
e-|----------------------------|
B-|----------------------------|
G-|----------------------------|
D-|------------9------------8--|
A-|----3h5-x-x------3h5-x-x----|
D-|--0------------0------------|



                Killing in the name of
    D5  N.C.        C5

e-|----------------------------------|
B-|----------------------------------|
G-|------------(7)--5-5-5-5-5-5-5-5--|
D-|-------------7---5-5-5-5-5-5-5-5--|
A-|----3h5-x-x------3-3-3-3-3-3-3-3--|
D-|--0-------------------------------|



D) Chorus
             And now you do what...


    D octaves V   	  (4 times)
e-|--------------------------------|
B-|.------------------------------.|
G-|--7-7---7-----------------------|
D-|.------------------------------.|
A-|--5-5---5-----------------------|
D-|--0-0---0-----------------------|


            And now you do what...
   D octaves V              (4 times)

e-|----------------------------------|
B-|.--------------------------------.|
G-|--7-7--7-7--x-x-x-x-x-x-x-x-x-x---|
D-|.-x-x--x-x--x-x-x-x-x-x-x-x-x-x--.|
A-|--5-5--5-5--x-x-x-x-x-x-x-x-x-x---|
D-|--0-0--0-0--x-x-x-x-x-x-x-x-x-x---|

					
e-|--------------------------|-----------|
B-|--------------------------|-------/---|
G-|--7-7--7-7-x-x-x-x-x-7-7--|----o-/----|
D-|--x-x--x-x-x-x-x-x-x-x-x--|-----/-o---|
A-|--5-5--5-5-x-x-x-x-x-5-5--|----/------|
D-|--0-0--0-0-x-x-x-x-x-0-0--|-----------|
					
	        D octaves XVII
e-|---------------------------------------------|
B-|---------------------------------------------|
G-|--7-7-x-7-7--19-19-19-19-19-19--19-19-19-19--|
D-|--x-x-x-x-x--x--x--x--x--x--x---x--x--x--x---|
A-|--5-5-x-5-5--17-17-17-17-17-17--17-17-17-17--|
D-|--0-0-x-0-0----------------------------------|
	        --------6--------  ----3---


E)
    Those who die...

(2nd time after 1st chorus, go back to B))
(2nd time after 2nd chorus, continue to F))
     D octaves V     F5 G5 C octaves III         
e-|---------------------------|
B-|.-------------------------.|
G-|--7-7-x-7-7-x-7-x-------5--|  (8 times)
D-|.-x-x-x-x-x-x-x-x-------x-.|
A-|--5-5-x-5-5-x-5-x-3-3-5-3--|
D-|--0-0-x-0-0-x-0-x-3-3-5----|


F) Guitar solo

e-|--------------------------------------
B-|--13-13-13-13-13-13-10-10-10-10-10-10-
G-|--------------------------------------
D-|--------------------------------------
A-|--------------------------------------
D-|--------------------------------------

	-------------------------------------|
	-------------------------------------|
	12-12-12-12-12-12-10-10-10-10-10-10--|
	-------------------------------------|
	-------------------------------------|
	-------------------------------------|


e-|---------------------------------------------------------|
B-|--------------------------------------10h-11p-10---(10)--|
G-|---------------------------------------------------------|
D-|--12-12-12-12-12-12-10-10-10-10-10-10--------------------|
A-|---------------------------------------------------------|
D-|---------------------------------------------------------|
					  ~~~~~~~~~~~~~~~

e-|-------------------------------------
B-|--13-13-13-13-13-13-10-10-10-10-10-10
G-|-------------------------------------
D-|-------------------------------------
A-|-------------------------------------
D-|-------------------------------------


	-------------------------------------|
	-------------------------------------|
	12-12-12-12-12-12-10-10-10-10-10-10--|
	-------------------------------------|
	-------------------------------------|
	-------------------------------------|



e-|---------------------------------------------|
B-|---------------------------------------------|
G-|---------------------------------------------|
D-|--12-12-12-12-10-10-10-10-12h-13p-12---(12)--|
A-|---------------------------------------------|
D-|---------------------------------------------|
			      ~~~~~~~~~~~~~~~

e-|----------------------------------------|
B-|--10h-13p-10---(10)--10h-13p-10---(10)--|
G-|----------------------------------------|
D-|----------------------------------------|
A-|----------------------------------------|
D-|----------------------------------------|
     ~~~~~~~~~~~~~~~~    ~~~~~~~~~~~~~~~~ 

e-|-------------------------------------------|
B-|-------------------------------------------|
G-|-------------------------------------------|
D-|-------------------------------------------|
A-|--10h-12p-10---(10)--10h-12p-10-12---(12)--|
D-|-------------------------------------------|
     ~~~~~~~~~~~~~~~~


e-|------------------------|----------------|
B-|--15---(15)--17---(17)--|--9--------(9)--|
G-|------------------------|----------------|
D-|------------------------|----------------|
A-|------------------------|----------------|
D-|------------------------|----------------|
      ~~~~~~~    ~~~~~~~      ~~~~~~~~~~~~

G) Outro
    *** you I won't do...

   D octaves V       E octaves         F octaves         G octaves
e-|-----------------|-----------------|-----------------|-----------------|
B-|-----------------|-----------------|-----------------|-----------------|
G-|--7---7---7---7--|--9---9---9---9--|--10--10--10--10-|-12--12--12--12--|
D-|--x---x---x---x--|--x---x---x---x--|--x---x---x---x--|--x---x---x---x--|
A-|--5---5---5---5--|--7---7---7---7--|--8---8---8---8--|-10--10--10--10--|
D-|--0---0---0---0--|-----------------|-----------------|-----------------|
    (6) (6) (6) (6)   (6) (6) (6) (6)   (6) (6) (6) (6)   (6) (6) (6) (6)

   A octaves         Bb octaves        C octaves XV
e-|-----------------|-----------------|-----------------|
B-|-----------------|-----------------|-----------------| 
G-|-14--14--14--14--|-15--15--15--15--|-17--17--17--17--|
D-|--x---x---x---x--|--x---x---x---x--|--x---x---x---x--|
A-|-12--12--12--12--|-13--13--13--13--|-15--15--15--15--|
D-|-----------------|-----------------|-----------------|
    (6) (6) (6) (6)   (6) (6) (6) (6)   (6) (6) (6) (6)

   D octaves XVII   (4 times)
e-|--------------------------|
B-|.------------------------.|
G-|--19-19-19-19-------------|
D-|.--x--x--x--x------------.|
A-|--17-17-17-17-------------|
D-|--------------------------|


Repeat E) (8 times)


    Dm7				       (4 times)
e-|---------------------------------------------|
B-|.-10-10-x-x-10-10-10-10-x-x-10-10-10-10-x-x-.|
G-|--10-10-x-x-10-10-10-10-x-x-10-10-10-10-x-x--|
D-|.-10-10-x-x-10-10-10-10-x-x-10-10-10-10-x-x-.|
A-|---------------------------------------------|
D-|---------------------------------------------|


   D octaves V
e-|-----------------|---------------|
B-|-----------------|---------------|
G-|--7---7---7---7--|---------------|
D-|--x---x---x---x--|---------------|
A-|--5---5---5---5--|--------6-6-6--|
D-|--0---0---0---0--|--0-0-0--------|
    (6) (6) (6) (6)



	(6) means hit the string 6 times fast





Comments


Popular Rage Against The Machine tabs & chords
Bombtrack 1 Bass Tabs
Born As Ghosts  Bass Tabs
Microphone Fiend 2 Bass Tabs
Voice Of The Voiceless 2 Bass Tabs
War Within A Breath Bass Tabs
Sleep Now In The Fire Drum Tabs
Born Of A Broken Man Tabs
Down Rodeo Tabs
Testify 4 Tabs
Voice Of The Voiceless  2 Tabs


Song lyrics



↑ Back to top | Tablatures and chords are parodies/interpretations of the original songs. You may use it for private study, scholarship, research or language learning purposes only
© 2014 AZChords.com Contact us | Privacy policy | DMCA | Add/correct tabs | Request tabs | Top 50 tabs