» » »

Rage Against The Machine, Killing In The Name Of Tabs (ver.5)

Artists:  A B C D E F G H I J K L M N O P Q R S T U V W X Y Z # 

Killing In The Name Of Tabs (ver.5)

Rage Against The Machine Tabs
 Rating:
4/5 (4 votes)
Killing In The Name Of lessons Tabs too difficult? Try these video lessons and learn fast
                E>--------x----------------------------------------------------------------------------------------------------------<
B>--------3---------3-----------3------3----------------------------------------------------------------------------<
G>--------2---------2-----------2------2---------------------------------------------------------------------------<
D>--------0---------0-----------0------0---------------------------------------------------------------------------<
A>--------0---------0-----------0------0---------------------------------6/\/\/\/\/\/\/-----------------------------<
D>--------0---------0-----------0------0---------------------------------------------------------------------------<

x=don&#8217;t play string
/\\/\/\/\/\/\ = fade in volume
{full} full bend
E-----------------------------------------------
B-----------------------------------------------
G------------------------------------11---12--         =play 3 times then
D---------------------------11--12------------
A-----------------------------------------------
D--------0----0-----0-------------------------

E----------------------------------------------
B-----------------------------------------------
G------------------------------12{Full}12---
D-------------------11--12-------------------
A----------------------------------------------
D----0----0----0------------------------------



A------------------------6---6-----6
D---------0----0-----0--------------   Play 3 times


G--------------8----8----------
D--------------X---X-----------
A--------------6----6-----------
D---0--0---0-----------------------



D--------------------3H4----------------
A--0-3H5--X--X--------5---0--2H3P2
D--0--------X--X------------ 0--2H3P2  PLAY 4 TIMES 


D---------------------3H4-------------------
A----0-3-H-5X--X-------5--0--2-H-3-P-2
D----0--------X--X-----------0--2-H-3-P-2      PLAY WITH PALM MUTE 3 TIMES
  PM----------------               ----------------


D
A--0-3H5-X--X-----9--0-3H5-X--X----8---0----3H5-X--X----7-------2H3-2H3-2
D--0-------X--X--------0-------X--X---------0----------X--X-------------2H3-2H3-2
PLAY  ONCE AND THEN 2ND TIME PLAY UP TO HERE^


G-----------------------------------------------7---7------7
D---5----5----5----5---5---5----5---5-------X---X-----X
A---3----3----3----3---3---3----3---3-------5----5-----5
D----------------------------------------------PLAY TWICE^
  PM----------------------------------------
  
X 2
G----7----7----X-----7--X---7
D----X---X--- X----X--X---X
A----5----5----X-----5--X---5----3------5------3
D------------------------------------3------5-------------------

STRUM EACH
*** YOU I WONT DO WHAT U TELL ME
FREELY
G----7-------
D-------------
A----5-------
D--------------

G-9---------
D----------
A-7--------
D------------

G--10-----
D----------
A--8-------
D------------

G--12----
D---------
A--10----
D---------

G---14----
D----------
A---12----
D---------

G---15----
D---------
A---13----

G--17----
D--------
A--15---
D----------

G--19----
D--------   SLIDE UP AND DOWN ON FRET BOARD
A--17----
D--------

TO X 2

E----5---5---X---X---5---5---5----5--X---X----5-----5------5-----5
B----6---6---X---X---6---6---6----6--X---X----6-----6------6-----6
G----5---5---X---X---5---5---5----5--X---X----5-----5------5-----5
D----7---7---X---X---7---7---7----7--X---X----7-----7------7-----7
A----5---5---X---X---5---5---5----5--X---X----5-----5------5-----5
D--------------------------------------------------------------------------

G--7-----7-----7-----7----7---7---7---7----7---7----7---7---7---7----7---7----7----7----7----7---7-----7---7----7
D----------------------------------------------------------------------------------------------------------------------------
A--5-----5-----5-----5----5---5---5---5----5---5----5---5---5---5----5---5----5----5----5----5---5-----5---5----5
D---------------------------------------------------------------------------------------------------------------------------

A------------6------6-----6
D--0--0---0----------------
            
Submit corrections

comments powered by Disqus
↑ Back to top | Rage Against The Machine Tabs for Killing In The Name Of. Lyrics for acoustic guitar and electric guitar. Tablatures and chords are parodies/interpretations of the original songs. You may use it for private study, scholarship, research or language learning purposes only