» » »

Rage Against The Machine, Killing In The Name Of Tabs (ver.8)

Artists:  A B C D E F G H I J K L M N O P Q R S T U V W X Y Z # 

Killing In The Name Of Tabs (ver.8)

Rage Against The Machine Tabs
Rating:
0/5 (0 votes)
Killing In The Name Of lessons Tabs too difficult? Try these video lessons and learn fast
                standard tuning
(EADGBe)

Intro - I play it with lots of flanger and distortion
I think Tom Morello uses an Ibanez flanger pedal

---------------------------------------------------------
-----3----3----3----3------------------------------------
-----2----2----2----2------------------------------------
-----0----0----0----0------------------------------------
---------------------------------------------------------
---------------------------------------------------------
after 4th strum crank the music down

Bass - arranged for guitar (use if you havnt got bass support)
---------------------------------------------------------
---------------------------------------------------------
---------------------------------------------------------
---------------------------------------------------------
----------6-6-6----------6-6-6---------6-6-6-------6-6-6-
----0-0-0----------0-0-0---------0-0-0--------0-0-0------

guitar - heavy disortion
---------------------------------------------------------
---------------------------------------------------------
-------------11-12--------------11-12--------------------
-------11-12--------------11-12--------------------------
---------------------------------------------------------
-0-0-0--------------0-0-0--------------------------------

---------------------------------------------------------
---------------------------------------------------------
---------------11-12-------------12b14r12----------------
---------11-12--------------11-12------------------------
---------------------------------------------------------
---0-0-0--------------0-0-0------------------------------

---------------------------------------------------------
---------------------------------------------------------
---------------------------------------------8-----------
---------------------------------------------8-----------
----------6-6-6-------6-6-6------6-6-6-------6-----------
----0-0-0--------0-0-0------0-0-0------0-0-0-------------

main riff - reduce distorsion during vocals
---------------------------------------------------------
---------------------------------------------------------
---------------------------------------------------------
----------3h4----0-2h3p2-0-------------------------------
----3h5-------5--0-2h3p2-0-------------------------------
--0-----0--------0-2h3p2-0-------------------------------

chorus riff
---------------------------------------------------------
---------------------------------------------------------
---------------------------------------------------------
---------------------------------------------------------
-----3h5---4(hold)---------3h5---3(hold)-----------------
---0-----0---------------0-----0-------------------------

---------------------------------------------------------
---------------------------------------------------------
---------------------------------------------------------
----------------------0-2-3-2-0--------------------------
------3h5---2(hold)---0-2-3-2-0--------------------------
----0-----0-----------0-2-3-2-0--------------------------

now you do what they told ya.. bit
---------------------------------------------------------
---------------------------------------------------------
---7--7----7---------------------------------------------
---7--7----7---------------------------------------------
---5--5----5---------------------------------------------
---------------------------------------------------------

---------------------------------------------------------
---------------------------------------------------------
---7--7----7---x--x--x--x--x-----------------------------
---7--7----7---x--x--x--x--x-----------------------------
---5--5----5---x--x--x--x--x-----------------------------
---------------------------------------------------------

---------------------------------------------------------
---------------------------------------------------------
---7--7--7---------5-------------------------------------
---7--7--7---------5-------------------------------------
---5--5--5--3--5---3-------------------------------------
------------3--5-----------------------------------------

back to vesre riffs

0nly alteration on 4th time
---------------------------------------------------------
-----------------------4---------------------------------
-----------------3-4-5-----------------------------------
-----------3-4-5-----------------------------------------
-----3h5-------------------------------------------------
---0-----0-----------------------------------------------

then back: to now you do......

solo .... sorry i count figure it out right because you need
modulation effects on a digitech whammy pedal so this is wrong

on the first bit open and close the foot pedal (i dont know the whammy
settings)
---20-----17------14------11-----------------------------
---------------------------------------------------------
------17------14------11------8/-------------------------
---------------------------------------------------------
---------------------------------------------------------
---------------------------------------------------------

for the next bit slide up and down on the bottom e string
im not sure what notes just improvise!

*** you bit

very fast struming
tom morello uses three alternating fingers to strum to
get it so fast  its about 24 per chord
if you find this hard just use 12
---------------------------------------------------------
---------------------------------------------------------
---7--9--10--12--14--15--17--19--------------------------
---7--9--10--12--14--15--17--19--------------------------
---5--7--8---10--12--13--15--17--------------------------
---------------------------------------------------------
for the 19:19:17 slow the pace
do 4 strums instead

---------------------------------------------------------
---------------------------------------------------------
---7--7--7---------5-------------------------------------
---7--7--7---------5-------------------------------------
---5--5--5--3--5---3-------------------------------------
------------3--5-----------------------------------------

---------------------------------------------------------
---------------------------------------------------------
---7-----------------------------------------------------
---7-----------------------------------------------------
---5---x12-----------------------------------------------
---------------------------------------------------------

---------------------------------------------------------
---------------------------------------------------------
---------------------------------------------------------
---------------------------------------------------------
---------6-6-6\------------------------------------------
---0-0-0-------------------------------------------------

the end!

And I will very grateful!
            
Submit corrections

comments powered by Disqus
↑ Back to top | Rage Against The Machine Tabs for Killing In The Name Of. Lyrics for acoustic guitar and electric guitar. Tablatures and chords are parodies/interpretations of the original songs. You may use it for private study, scholarship, research or language learning purposes only