>
 >
Killing In The Name 8

Killing In The Name 8 Guitar Tabs

Rage Against The Machine - Killing In The Name 8 chords, tabs, tablatures, lyrics

Guitar lessons | Add/correct | Request | Top 50 tabs Artists:  A B C D E F G H I J K L M N O P Q R S T U V W X Y Z 0-9

Killing In The Name 8 Guitar Tabs – Rage Against The Machine

CD, Sheet music, Poster

Do you like Killing In The Name 8? Share with your friends now
Bass TabsBass Tabs v2Bass Tabs v3Bass Tabs v4Bass Tabs v5ChordsDrum TabsDrum Tabs v2TabsTabs v2Tabs v3Tabs v4Tabs v5Tabs v6Tabs v7Tabs v8
v = vibrato
	/ = slide up
	\ = slide downh
	h = hammer on
	p = pull off
	


	Tom uses a Digitech Whammy for this solo which is set for "2 Oct Up" preset. 
	This effect bends the tones of the guitar 2 octaves up.
	The solo sounds really silly without this effect, but with or without the whammy, here is what he actually PLAYS:



							       
	|-888-10---------------------------|--------------------------|
	|----------888-10---666-8----------|-----------------10vvv----|
	|---------------------------777-10-|-555-7---222-5------------|
	|----------------------------------|--------------------------|
	|----------------------------------|--------------------------|
	|----------------------------------|--------------------------|                                         
         

	  (10th)                            
	|--------------------------------------|--------------------------|
	|-101010-13---888 10---666-8-----------|-----------------3vvv-----|
	|------------------------------777-10--|-555-7---222-5------------|
	|--------------------------------------|--------------------------|
	|--------------------------------------|--------------------------|
	|--------------------------------------|--------------------------|



	|--5h8p5h8p5h8p5\---5h8p5h8p5h8\---|----------------------------------|
	|----------------------------------|---8h10p8h10p8p10\---8h10p8h10\---|
	|----------------------------------|----------------------------------|
	|----------------------------------|----------------------------------|
	|----------------------------------|----------------------------------|
        |----------------------------------|----------------------------------|
                                                                     

	|---------------|--------------|
	|-/15----/17----|--------------|
	|---------------|-/13vvvvvvv---|
	|---------------|--------------|
	|---------------|--------------|
	|---------------|--------------|





Comments


Popular Rage Against The Machine tabs & chords
Ashes In The Fall  1 Bass Tabs
Calm Like A Bomb 5 Bass Tabs
Renegades Of Funk Bass Tabs
Im Housin 2 Tabs
Killing In The Name Of Tabs
Rage Against The Machine Tabs
Renages Of Funk Tabs
Roll Right Tabs
Take The Power Back Tab Tabs
Testify 2 Tabs


Song lyrics



↑ Back to top | Tablatures and chords are parodies/interpretations of the original songs. You may use it for private study, scholarship, research or language learning purposes only
© 2014 AZChords.com Contact us | Privacy policy | DMCA | Add/correct tabs | Request tabs | Top 50 tabs