>
 >
Im Housin 5

Im Housin 5 Bass Tabs

Rage Against The Machine - Im Housin 5 chords, tabs, tablatures, lyrics

Guitar lessons | Add/correct | Request | Top 50 tabs Artists:  A B C D E F G H I J K L M N O P Q R S T U V W X Y Z 0-9

Im Housin 5 Bass Tabs – Rage Against The Machine

CD, Sheet music, Poster

Do you like Im Housin 5? Share with your friends now
Bass TabsBass Tabs v2Bass Tabs v3Bass Tabs v4Bass Tabs v5Bass Tabs v6
Band: Rage Against The Machine.
Done By: Tim Commerford.

Main Riff: (00:00)

G-|----||---10\12--------------------------||------|
D-|----||-o--------------------------------o-||----|
A-|----||-o---------7--6--5--------------o-||------|  x9
E-|-0-||------------------7--6--5-3-0-----||-------|

On the 10th time:

G-|----||---10\12-------------------------|
D-|----||-o-------------------------------|
A-|----||-o---------7--6--5---------------|
E-|-0-||------------------7--6--5---------|

Because I'm housin...

G-|--------------------------------------|
D-|--------------------------------------|
A-|--------------------------------------|
E-|---00--00--00--00---------------------|

G-|--------------------------------------|
D-|--------------------------------------|
A-|---7---7---7---7----10*---------------|  x4
E-|-----0---0---0---0--------------------|

G-|---------------------------------------|
D-|---------------------------------------|
A-|----5\7-5\7-5---5-5---5----------------| x8
E-|-----------------7------7---765--------|

And Back to the main riff: (01:50)

G-|----||---10\12--------------------------||------|
D-|----||-o--------------------------------o-||----|
A-|----||-o---------7--6--5--------------o-||------|  x9
E-|-0-||------------------7--6--5-3-0-----||-------|

Because I'm housin...

G-|---------------------------------------|
D-|---------------------------------------|
A-|---------------------------------------|
E-|---00--00--00--00----------------------|

G-|--------------------------------------|
D-|--------------------------------------|
A-|---7---7---7---7----10*---------------|  x4
E-|-----0---0---0---0--------------------|

G-|---------------------------------------|
D-|---------------------------------------|
A-|----5\7-5\7-5---5-5---5----------------| x8
E-|-----------------7------7---765--------|

Outro:

G-|--------------------------------------|
D-|--------------------------------------|
A-|---7---7---7---7----10*---------  x12-|
E-|-----0---0---0---0--------------------|

G-|---------------------------------------|
D-|---------------------------------------|
A-|----5\7-5\7-5---5-5---5----------------| x8
E-|-----------------7------7---765--------|


G-|---------------------------------------|
D-|---------------------------------------|
A-|---------------------------------------|
E-|---00--00--00--00----------------------|





Comments


Popular Rage Against The Machine tabs & chords
Clear The Lane 1 Bass Tabs
Maria Bass Tabs
Roll Right Bass Tabs
Snoop Bounce 1 Bass Tabs
Testify Bass Tabs
Born Of A Broken Man 2 Tabs
How I Could Just Kill A Man 4 Tabs
New Millennium Homes 1 Tabs
Revolver Tabs
Roll Rlght Tabs


Song lyrics



↑ Back to top | Tablatures and chords are parodies/interpretations of the original songs. You may use it for private study, scholarship, research or language learning purposes only
© 2014 AZChords.com Contact us | Privacy policy | DMCA | Add/correct tabs | Request tabs | Top 50 tabs