» » »

How I Could Just Kill A Man Tabs (ver.3)

Artists:  A B C D E F G H I J K L M N O P Q R S T U V W X Y Z # 

How I Could Just Kill A Man Tabs (ver.3)

Rage Against The Machine
Rating:
0/5 (0 votes)

Hard to play? Try these video lessons and learn fast.
                rage against the machine
how i could just kill a man
drop d (ebgdad)
mike strobel

intro verse          /gradually bend the F a half note 
e-------------------/------------------------------------------
b------------------6b------------------------------------------
g--5-7-5-7-5-7-7-5---------5-7-5-7-5-7-7-5-7-------------------
d--------------------------------------------------------------
a--------------------------------------------------------------
d--------------------------------------------------------------

chorus
e--------------------------------------------------------------
b--------------------------------------------------------------
g--------------------------------------------------------------
d------3-------------------------------------------------------
a--3h5--------------3--------------xx--------------------------
d--------0h3-3---5-----0-0-0-0-0---xx--3/5/3-------------------

other part of verse just like in the chorus
e--------------------------------------------------------------
b--------------------------------------------------------------
g--------------------------------------------------------------
d--------------------------------------------------------------
a--------------------------------------------------------------
d--0-0-0-0-0---------------------------------------------------

breakdown-with delay
e--------------------------------------------------------------
b----7-8------7-8-----7-8--------------------------------------
g--9------7-9-----7-9------------------------------------------
d--------------------------------------------------------------
a--------------------------------------------------------------
d--------------------------------------------------------------
            
Hard to play? Try these video lessons and learn fast. | Correct




comments powered by Disqus
↑ Back to top | Tablatures and chords are parodies/interpretations of the original songs. You may use it for private study, scholarship, research or language learning purposes only