» » »

Rage Against The Machine, Guerilla Radio Tabs (ver.3)

Artists:  A B C D E F G H I J K L M N O P Q R S T U V W X Y Z # 

Guerilla Radio Tabs (ver.3)

Rage Against The Machine Tabs
 Rating:
4/5 (4 votes)
Guerilla Radio lessons Tabs too difficult? Try these video lessons and learn fast
1
                Guerilla Radio
Rage Against the Machine
	b- 1 1/2 step bend up
	Standard tuning
	All with distortion

Intro/Chorus (while flipping toggle switch)
e--------------------------------------
B--------------------------------------
G--------------------------------------
D--------------------------------------
A-----------------0-2------------------
E-0-2--2--0-2-0-2----------------------

End of Chorus
e--------------------------------------
B--------------------------------------
G--2-----------------1-----------------
D--------------------------------------
A--------------------------------------
E-----2---------0--------2--------0----

Verse     (Full wah on each note)
	  e-----------------------
Guitar #1 B-----------------------
	  G-----------------------
	  D-----------------------
	  A-----------------------
	  E---0--2-----0--0--2----

            (With Harmonizer)
  Solo    e-------------------------------------
Guitar #1 B-------------------------------------
*3 times  G-----------------------------2-------
	  D---4-----2---4--------2---4----------
	  A-------------------------------------
	  E-------------------------------------
	  
	  e-------------------------------------
Guitar #1 B-------------------------------------
*3 times  G---4-----2---4---------4b---2--------
	  D---4-----2---4-----2------------4----
	  A-------------------------------------
	  E-------------------------------------
	 
	  
	  e---7--6--3--4-------
Guitar #1 B---7--6--3--4-------
	  G---7--6--3--4-------It has to start somewhere...
	  D--------------------
	  A--------------------
	  E--------------------

Outro (3 times)  Then
e---------------I--------------------
B---------------I--------------------
G---------11\2--I--------------------
D-2-4--x--11\2--I-x-x-x-x-xx-x-x-x-x-
A-2-4--x--9-\0--I-x-x-x-x-xx-x-x-x-x-
E-0-2--x--------I-x-x-x-x-xx-x-x-x-x-
            
Submit corrections

comments powered by Disqus
↑ Back to top | Rage Against The Machine Tabs for Guerilla Radio. Lyrics for acoustic guitar and electric guitar. 1 Tablatures and chords are parodies/interpretations of the original songs. You may use it for private study, scholarship, research or language learning purposes only