» » »

Good Morning Vietnam Tabs (ver.3)

Artists:  A B C D E F G H I J K L M N O P Q R S T U V W X Y Z # 

Good Morning Vietnam Tabs (ver.3)

Rage Against The Machine
Rating:
0/5 (0 votes)

Hard to play? Try these video lessons and learn fast.
                (Intro)
Here it is, pretty simple really. 

Intro [repeated throughout song]

E |------------------------------------------------------|
B |------------------------------------------------------|
G |------------------------------------------------4B----|
D |-4-4---4---4-4---4---4-4---4-2-4---4---4-4---4--------|
A |-4-4---4---4-4---4---4-4---4-0-4---4---4-4---4--------|
E |-2-2-0-2---2-2-0-2---2-2-0-2---2-0-2---2-2-0-2--------|

Then it goes into this...

E |-------------------------------|
B |-------------------------------|
G |-------------------------------|
D |------------------3------------|
A |-5-3-5-3-5--5-3-5---5-3-5-3----|
E |----------------------------5--|

Enjoy!
            
Hard to play? Try these video lessons and learn fast. | Correct




comments powered by Disqus
↑ Back to top | Tablatures and chords are parodies/interpretations of the original songs. You may use it for private study, scholarship, research or language learning purposes only